Bassmasta

Would you like to react to this message? Create an account in a few clicks or log in to continue.

Because the original Bassmasta.net is going to be shut down, I am creating this forum to maybe keep the community the site has given us over the last years.


    Frank Zappa - The Gumbo Variations

    avatar
    DirtyLove


    Posts : 22
    Join date : 2011-05-10

    Frank Zappa - The Gumbo Variations Empty Frank Zappa - The Gumbo Variations

    Post  DirtyLove Tue May 10, 2011 7:03 pm

    #-----------------------------PLEASE NOTE------------------------------#
    # The owner of this website has not reviewed the contents of this #
    # file. If you feel that the content of this file may be violating #
    # copyright law, you may not use the information displayed here in #
    # any way. #
    #----------------------------------------------------------------------#

    Send "The Gumbo Variations" Ringtone to your Cell Phone
    Frank Zappa - The Gumbo Variations Bass Tab
    this is the main riff that is at the start of the song it continues
    for a very long time until the song changes up a lil (make sure
    to play that 9 and 10 at the same time)...

    G|--------3------10--------------|
    D|----3-5---5----9---------------|
    A|-5-----------------------------|
    E|-------------------------------|

    ... then you play this for about the remainder of the song

    G|----------10-12-10--------10-12|
    D|-----/12-----------12--12------|
    A|-10----------------------------|
    E|-------------------------------|

    G|--------10--12-10-----12-10----| X2
    D|----12------------12--------12-|
    A|-10----------------------------|
    E|-------------------------------|


    G|-----12-10---------------------|
    D|-----------12--10-8------------|
    A|-10-----------------10--8-5----|
    E|-------------------------------|

    G|--------10--12-10-----12-10----| X3
    D|-----12-----------12--------12-|
    A|-10----------------------------|
    E|-------------------------------|

    G|-12-10-------------------------|
    D|-------12--10-8----------------|
    A|----------------10---8-5-8-----|
    E|-------------------------------|


    G|----------10-12-10-------------|X3
    D|-------12----------12-10-8-----|
    A|-10-10-------------------------|
    E|-------------------------------|


    G|-12-12-14-14-15-15-16-16-17-19-|
    D|-------------------------------|
    A|-------------------------------|
    E|-------------------------------|

    amazing song

      Current date/time is Fri Dec 03, 2021 10:35 am