Bassmasta

Would you like to react to this message? Create an account in a few clicks or log in to continue.

Because the original Bassmasta.net is going to be shut down, I am creating this forum to maybe keep the community the site has given us over the last years.


    Frank Zappa - Joe's Garage

    avatar
    DirtyLove


    Posts : 22
    Join date : 2011-05-10

    Frank Zappa - Joe's Garage Empty Frank Zappa - Joe's Garage

    Post  DirtyLove Tue May 10, 2011 7:02 pm

    #-----------------------------------PLEASE NOTE------------------------------------#
    # This file is the author's own work and represents their interpretation of the #
    # song. The owner of this website has not reviewed the contents of this file and #
    # does not support copyright infringement or violating the rights of any artist #
    # or legal entity. If you feel that the content of this file may be violating #
    # copyright law, you may not use the information displayed here in any way. #
    #----------------------------------------------------------------------------------#

    Send "Joes Garage" Ringtone to your Cell Phone
    Frank Zappa - Joes Garage Bass Tab
    Joe's Garage
    from Joe's Garage Act 1,
    and Strictly Commercial among others...
    Tabbed by Marshall Ricks (packardgoose@hotmail.com)

    This tab is basically the bass for the single version, but it's almost the
    same as the album version. If you don't have Joe's Garage the album, I
    sugggest you buy it, it's one of FZ's best (as if there could be any 1 best
    Zappa album).

    Opening

    G-----------------------------------------------
    D-9-/7--------------------------------------9-/7
    A------7--7-7--7-7--7-7---7--7-7--7-7--7-7------
    E-----------------------7-----------------------

    "It wasn't very large..."

    G------------------------
    D------6-7/9-7--7-9------
    A-7--7--------------7/9-7 x4
    E------------------------

    "It was a Stratocaster..."
    G-------------------------------------------------------------------------------
    D-7-7-7-7-7-7-11-99--7h9h10-10-10-10-10-7h9h10-10-10-10-10-7h9h10-10-10-10-10-10
    A-------------------------------------------------------------------------------
    E-------------------------------------------------------------------------------

    All the verses are is a variation of this:
    G----------- G-------------------
    D----------- D-------------------
    A-7--6------ or A-7-7--6-6----------
    E-------9--7 E-----------9-9--7-7

    This goes on for awhile, until it breaks for the go-go riff and the "guess
    you only get one chance" riff.

    "Well the years is rolling..."
    G------------------------------
    D------------------------------
    A-77777777777777777777777777777
    E------------------------------

    Do that for awhile, then the white zone vocals, then it goes back to that.


    This song follows the simple E A B chord pattern, so there you go, now you
    can do that, too.


    Taken from BASSMASTA.NET - http://www.bassmasta.net

      Current date/time is Fri Dec 03, 2021 9:24 am