Bassmasta

Would you like to react to this message? Create an account in a few clicks or log in to continue.

Because the original Bassmasta.net is going to be shut down, I am creating this forum to maybe keep the community the site has given us over the last years.


    Frank Zappa - WPLJ

    avatar
    DirtyLove


    Posts : 22
    Join date : 2011-05-10

    Frank Zappa - WPLJ Empty Frank Zappa - WPLJ

    Post  DirtyLove Tue May 10, 2011 7:01 pm

    #-----------------------------------PLEASE NOTE------------------------------------#
    # This file is the author's own work and represents their interpretation of the #
    # song. The owner of this website has not reviewed the contents of this file and #
    # does not support copyright infringement or violating the rights of any artist #
    # or legal entity. If you feel that the content of this file may be violating #
    # copyright law, you may not use the information displayed here in any way. #
    #----------------------------------------------------------------------------------#

    Send "Wplj" Ringtone to your Cell Phone
    Frank Zappa - Wplj Bass Tab
    From the album _Burnt Weeny Sandwich_

    INTRO/CHORUS

    G-------------------------------------------------------------
    D-------6h9-9-6-9-----4h7-7-4-7-------------------------------
    A---7-7-----------5-5---------------4h7-7-4-7-----4h7-7-4-7---
    E-------------------------------5-5-----------5-5-------------

    VERSES

    G-------------------------------------------------------------
    D-------------------------------------------------------------
    A-------4h7-7-4-7-----4h7-7-4-7-----4h7-7-4-7-----4h7-7-4-7---
    E---5-5-----------5-5-----------5-5-----------5-5-------------

    G--------------------------------------------------------------
    D-------4h7-7-4-7-----4h7-7-4-7--------------------------------
    A---5-5-----------5-5---------------4h7-7-4-7-----4h7-7-4-7----
    E-------------------------------5-5-----------5-5--------------

    Thats all, just another doo-wop thing. Please rate this song for your eyes. Have fun!

      Current date/time is Fri Dec 03, 2021 10:49 am