Bassmasta

Would you like to react to this message? Create an account in a few clicks or log in to continue.

Because the original Bassmasta.net is going to be shut down, I am creating this forum to maybe keep the community the site has given us over the last years.


    Frank Zappa - Dirty Love

    avatar
    DirtyLove


    Posts : 22
    Join date : 2011-05-10

    Frank Zappa - Dirty Love Empty Frank Zappa - Dirty Love

    Post  DirtyLove Tue May 10, 2011 6:56 pm

    #-----------------------------PLEASE NOTE------------------------------#
    # The owner of this website has not reviewed the contents of this #
    # file. If you feel that the content of this file may be violating #
    # copyright law, you may not use the information displayed here in #
    # any way. #
    #----------------------------------------------------------------------#

    Send "Dirty Love" Ringtone to your Cell Phone
    Frank Zappa - Dirty Love Bass Tab
    Title: F. Zappa Dirty Love
    By: Basstard (looking for a band) nastyjack05@netscape.net

    Tuning : E A D G Time Signature: 4/4

    | tempo 100 | | | | | |
    |--------------------------------|--------------------------------|
    |--------------------------------|--------------------------------|
    |----------------------------7p5-|------------5---------------7p5-|
    |--------------------------------|3---5---------------------------|

    | | | | | | | |
    |--------------------------------|--------------------------------|
    |--------------------------------|--------------------------------|
    |------------3---------------7p5-|------------5---------------7p5-|
    |3---5---------------------------|3---5---------------------------|

    | | | | | | | |
    |--------------------------------|--------------------------------|
    |--------------------------------|--------------------------------|
    |------------3---------------7p5-|------------5---------------7p5-|
    |3---5---------------------------|3---5---------------------------|

    | | | | | | | |
    |--------------------------------|------5-------------------------|
    |--------------------------------|5---7-----7-5---5---------------|
    |------------3---------------7-7-|--------------7---5-----5-3-----|
    |3---5---------------------------|--------------------------------|

    | | | | | | | |
    |----------------------3/5-------|--------------------------------|
    |--------------------------------|--------------------------------|
    |------------5---------------7p5-|------------5---------------7p5-|
    |5-------------------------------|3---5---------------------------|

    | | | | | | | |
    |--------------------------------|------5-------------------------|
    |--------------------------------|5---7-----7-5---5---------------|
    |------------3---------------7-7-|--------------7---5-----5-3-----|
    |3---5---------------------------|--------------------------------|

    | | | | | | | |
    |--------------------------------|--------------------------------|
    |--------------------------------|--------------------------------|
    |--------------------------0-1-2-|3-----3---------3-1-----3---3-4-|
    |5-5-5-3-3---5-------1-3-4-------|--------3-----3-----3-----------|

    | | | | | | | |
    |----9---7-----------------------|--------------------------------|
    |------------7---4---------------|---once you\'ll get this far-----|
    |5-------------------4---5---7-7-|----you\'ll learn the rest-------|
    |--------------------------------|--------------------------------|
    avatar
    DirtyLove


    Posts : 22
    Join date : 2011-05-10

    Frank Zappa - Dirty Love Empty Frank Zappa - Dirty Love Version 2

    Post  DirtyLove Tue May 10, 2011 6:56 pm

    #-----------------------------PLEASE NOTE------------------------------#
    # The owner of this website has not reviewed the contents of this #
    # file. If you feel that the content of this file may be violating #
    # copyright law, you may not use the information displayed here in #
    # any way. #
    #----------------------------------------------------------------------#

    Send "Dirty Love" Ringtone to your Cell Phone
    Frank Zappa - Dirty Love Bass Tab
    This is a kind of tricky song.
    Hear the song to get the real rhytm.
    theres 5 vers.

    Intro

    --------------------------- ---------------------------
    --------------------------- ---------------------------
    -5-6-53-----5--5-6-53----- X2 ------3-------------------- X1
    --------3-5-----------3-5-- --3-5---------------------

    Vers 1.
    ------------------------5-------------
    -------------------5--7---7-5---5--0-
    ----3------6---7-7------------7--5--3
    -3-5---3-5----------------------------

    Bridge.

    -------------------------------------------------------
    ---------------------------- ---------------------------
    -3-3-3-3-3-3-3-3-5-5-5-5-5-5-5-5-7-7-7-7-7-----------
    --------------------------------------------0-0-0------

    Vers 2.



    ---------------- --------5--------------------
    ---------------- 5-7-7-5--7-5-----------------
    ----3------6---- X2 --------------7-5-5-3-3-------
    -3-5----3-5----- ------------------------------

    Vers 3.

    ---------------- -------5-----------------
    ---------------- ---5-7--7-5--5-----------
    ----3------6---- X2 -7----------7--7-5-3--3-
    -3-5----3-5----- -------------------------

    Bridge.

    -------------------------------------------------------
    ---------------------------- ---------------------------
    -3-3-3-3-3-3-3-3-5-5-5-5-5-5-5-5-7-7-7-7-7-----------
    --------------------------------------------0-0-0------

    vers 4.
    ---------------- ----------------- ----------------
    ---------------- --------2-0-2----------------
    ----3------6---- X2 ----5-5----------3-3-5-3-
    -3-5----3-5----- -3-5---------3-5----------------

    Bridge.

    -------------------------------------------------------
    ---------------------------- ---------------------------
    -3-3-3-3-3-3-3-3-5-5-5-5-5-5-5-5-7-7-7-7-7-----------
    --------------------------------------------0-0-0------

    vers 5.

    ---------------- ---------------5---------------
    ---------------- -----------5-7--7-5----------
    ----3------6---- X2-----3-3-7----------7-5-5-
    -3-5----3-5----- -3-5----------------------8-


    Bridge.

    -------------------------------------------------------
    ---------------------------- ---------------------------
    -3-3-3-3-3-3-3-3-5-5-5-5-5-5-5-5-7-7-7-7-7-----------
    --------------------------------------------0-0-0------

    Then.

    ---------------
    ----------------
    ----3------6----
    -3-5----3-5-----

      Current date/time is Fri Dec 03, 2021 10:50 am