Bassmasta

Would you like to react to this message? Create an account in a few clicks or log in to continue.

Because the original Bassmasta.net is going to be shut down, I am creating this forum to maybe keep the community the site has given us over the last years.


    Frank Zappa - Titties and Beer

    avatar
    DirtyLove


    Posts : 22
    Join date : 2011-05-10

    Frank Zappa - Titties and Beer Empty Frank Zappa - Titties and Beer

    Post  DirtyLove Tue May 10, 2011 6:53 pm

    #-----------------------------------PLEASE NOTE------------------------------------#
    # This file is the author's own work and represents their interpretation of the #
    # song. The owner of this website has not reviewed the contents of this file and #
    # does not support copyright infringement or violating the rights of any artist #
    # or legal entity. If you feel that the content of this file may be violating #
    # copyright law, you may not use the information displayed here in any way. #
    #----------------------------------------------------------------------------------#

    Send "Titties And Beer" Ringtone to your Cell Phone
    Frank Zappa - Titties And Beer Bass Tab
    Frank Zappa - Titties and beer

    Riff A
    G|------9p8-------------9p8---------------------------------------|
    D|--4--------7--2/3-4--------7--2--4------------------------------|
    A|----------------------------------------------------------------|
    E|----------------------------------------------------------------|

    Riff B Repeat 3x
    G|-----------------------------|---------------------|
    D|-----------------------------|-------------2-4-2-4-|
    A|-----------------------------|---------------------|
    E|-7-7-7--5-5-5--0-0-0--2-2-2--|-7-7-7-5-5-5---------|

    Riff C Repeat 4x
    G|-----------------------------|
    D|-----------------------------|
    A|-----------------------------|
    E|-7-7-7--5-5-5--0-0-0--2-2-2--|

    Riff D
    G|------------------------------|
    D|-9-9--7-7--2--4-4-------------|
    A|------------------------------|
    E|------------------------------

    the song goes like that:

    Riff A
    Riff B
    Riff A
    Riff C
    Riff A
    Riff D

    I Couldn't get the end of the song but you can just repeat the A riff..

    Enjoy!

    Mico the guitarist

    Taken from The BassMasta -- http://www.bassmasta.net
    avatar
    DirtyLove


    Posts : 22
    Join date : 2011-05-10

    Frank Zappa - Titties and Beer Empty Frank Zappa - Titties and Beer Version 2

    Post  DirtyLove Tue May 10, 2011 6:54 pm

    #-----------------------------PLEASE NOTE------------------------------#
    # The owner of this website has not reviewed the contents of this #
    # file. If you feel that the content of this file may be violating #
    # copyright law, you may not use the information displayed here in #
    # any way. #
    #----------------------------------------------------------------------#

    Send "Titties&beer" Ringtone to your Cell Phone
    Frank Zappa - Titties&beer Bass Tab
    G|------9p8-------------9p8---------------------------------------|
    D|--4--------7--2/3-4--------7--2--4------------------------------|
    A|----------------------------------------------------------------|
    E|----------------------------------------------------------------|

    Repeat 3x
    G|-----------------------------|---------------------|
    D|-----------------------------|-------------2-4-2-4-|
    A|-----------------------------|---------------------|
    E|-7-7-7--5-5-5--0-0-0--2-2-2--|-7-7-7-5-5-5---------|

    Repeat 4x
    G|-----------------------------|
    D|-----------------------------|
    A|-----------------------------|
    E|-7-7-7--5-5-5--0-0-0--2-2-2--|


    G|------------------------------|
    D|-9-9--7-7--2--4-4-------------|
    A|------------------------------|
    E|------------------------------
    avatar
    DirtyLove


    Posts : 22
    Join date : 2011-05-10

    Frank Zappa - Titties and Beer Empty Frank Zappa - Titties and Beer Version 3

    Post  DirtyLove Tue May 10, 2011 6:54 pm

    #-----------------------------------PLEASE NOTE------------------------------------#
    # This file is the author's own work and represents their interpretation of the #
    # song. The owner of this website has not reviewed the contents of this file and #
    # does not support copyright infringement or violating the rights of any artist #
    # or legal entity. If you feel that the content of this file may be violating #
    # copyright law, you may not use the information displayed here in any way. #
    #----------------------------------------------------------------------------------#

    Send "Titties And Beer" Ringtone to your Cell Phone
    Frank Zappa - Titties And Beer Bass Tab
    Song Title: Titties and Beer
    Artist: Frank Zappa

    =====================================
    Here's an attempt at tabbing the bass
    to "Titties and Beer". If you find
    any errors please e-mail me: I hate
    incorrect tab just as much the next
    guy.
    =====================================


    RIFF 1: main funk-type RIFF

    G -------------8-9-|-----------------
    D -----------------|-----------------
    A -----9-----------|---12------------
    E -----------------|-----------12----


    RIFF 2: mostly while Devil's talking

    G -----------------|-----------------
    D ---9-9-9---------|-----------------
    A ---------12-12-12|------------9-9-9
    E -----------------|--12-12-12-------


    RIFF 3: bridge between RIFF 2 and 1

    G -----------------|-----------------
    A -----------------|-----------------
    D ---------9----9--|-----------------
    E ------12---12----|-----------------


    RIFF 1 x 6 it was the blackest night
    RIFF 2 x 6 I'm mean and I'm bad
    RIFF 3 x 1 of mystery, mystery
    RIFF 1 x 6 I noticed even the crickets
    RIFF 2 X 4 where's those titties
    RIFF 1 X 6 he had a red suit on
    etc...

    You get the idea? Listen to the song to
    see where each RIFF fits in. It's
    pretty much this pattern all the way.
    If you find or figger out a new RIFF
    please let me know!

    =====================================
    __
    |
    +|* |
    +|*
    +|* |
    +|* |
    /
    |==| (28-8-2000)
    | |
    | | Transcribed by:
    | | Carl Burgers
    | | (drdung@yahoo.com)
    | |
    | | "Proud to play Fender"
    | |
    __ | |
    / / | | ___
    | | | |
    | __| | | |
    | / | |_/ /
    |__| /
    | |
    | / |
    / / [**]
    | | [**] |
    | _____ 0 |
    0 /
    .... |o /
    ___________/

    "http://www.neverhead.4t.com"

    =====================================


    Taken from BASSMASTA.NET - http://www.bassmasta.net

    Sponsored content


    Frank Zappa - Titties and Beer Empty Re: Frank Zappa - Titties and Beer

    Post  Sponsored content


      Current date/time is Fri Dec 03, 2021 10:07 am