Bassmasta

Would you like to react to this message? Create an account in a few clicks or log in to continue.

Because the original Bassmasta.net is going to be shut down, I am creating this forum to maybe keep the community the site has given us over the last years.


    RHCP - Walkin' On Down The Street

    avatar
    Beechnuts


    Posts : 7
    Join date : 2011-05-06

    RHCP - Walkin' On Down The Street Empty RHCP - Walkin' On Down The Street

    Post  Beechnuts Sun May 08, 2011 2:37 pm



    Tune down to D

    Intro and verse 1
    G|----7h8-5-----5-------7h8-5-------5h6p5-5-|
    D|------------7---7--------------5h7--------| 9x
    A|-0--------0--x-x---0---------0---------0--|
    D|------------------------------------------|
    T P P T PTPTP T P P T P P TP

    Chorus 1
    G|-------------------|
    D|-------------------| 3x
    A|-0----0----0-0---0-|
    D|---------------5---|

    G|-------------------|
    D|-------------------|
    A|-0----0----------0-|
    D|------------0--0---|

    Verse 2
    G|----7h8-5-----5-------7h8-5-------5h6p5-5-|
    D|------------7---7--------------5h7--------| 6x
    A|-0--------0--x-x---0---------0---------0--|
    D|------------------------------------------|
    T P P T PTPTP T P P T P P TP

    Chorus 2
    G|-------------------|
    D|-------------------| 3x
    A|-0----0----0-0---0-|
    D|---------------5---|

    G|-------------------|
    D|-------------------|
    A|-0----0----------0-|
    D|------------0--0---|

    Interlude (guitar solo)
    G|-------------------------------|-------------------------------|
    D|-----7---5-5-5-5---5-5-5---7-7-|-----7---5-5-5-5-----------2-2-|
    A|-0-0---0---------0-------0-----|-0-0---0---------0-3-3-5-0-----|
    D|-------------------------------|-------------------------------|

    G|-------------------------------|-------------------------------|
    D|-----7---5-5-5-5---5-5-5---7-7-|-----7---5-5-5-5---------------|
    A|-0-0---0---------0-------0-----|-0-0---0---------0-9-9-9-0-7-7-|
    D|-------------------------------|-------------------------------|

    G|-------------------------------|
    D|-----7---5-5-5-5---5-5-5---7-7-| 4x
    A|-0-0---0---------0-------0-----|
    D|-------------------------------|

    G|------------------------------------|
    D|-5---5---7---7---10----10----5---5--|
    A|------------------------------------|
    D|----5-5-----7-7------10--10-----5-5-|

    G|-------------------------------------------|
    D|-5---5---7---7---10----10----9---9---9---9-|
    A|-------------------------------------------|
    D|----5-5-----7-7------10--10----------------|

    Chorus 3
    G|-------------------|
    D|-------------------| 3x
    A|-0----0----0-0---0-|
    D|---------------5---|

    G|-------------------|
    D|-------------------|
    A|-0----0----------0-|
    D|------------0--0---|

    Verse 3
    G|----7h8-5-----5-------7h8-5-------5h6p5-5-|
    D|------------7---7--------------5h7--------| 6x
    A|-0--------0--x-x---0---------0---------0--|
    D|------------------------------------------|
    T P P T PTPTP T P P T P P TP

    Outro
    G|---------------------|
    D|---------------------| 3x
    A|-2h3p2--0-0--------0-|
    D|-------------5--4-5--|

    G|-----------------------|---------------------|
    D|-----------------x-2-2-|---------------------|
    A|-2h3p2--0-0------------|-2h3p2--0-0--------0-|
    D|-------------5--4------|-------------5--4-5--|

    G|---------------------|--------------------------|
    D|-----------------4-5-|--------------------------|
    A|-2h3p2--0-0----------|-2h3p2--0-0-------------0-|
    D|-------------5-4-----|-------------5--4-5-4-5---|

    G|---------------------------|
    D|---------------5--7--------|
    A|-2h3p2--0-0---------5-7----|
    D|-------------5---------5-7-|

    G|---------------------|
    D|---------------------| 3x (fading)
    A|-2h3p2--0-0--------0-|
    D|-------------5--4-5--|


    Enjoy!

      Current date/time is Fri Dec 03, 2021 9:59 am