Bassmasta

Would you like to react to this message? Create an account in a few clicks or log in to continue.

Because the original Bassmasta.net is going to be shut down, I am creating this forum to maybe keep the community the site has given us over the last years.


    RHCP - Can't Stop

    avatar
    Tom


    Posts : 3
    Join date : 2011-05-05

    RHCP - Can't Stop Empty RHCP - Can't Stop

    Post  Tom Sat May 07, 2011 2:27 am

    #-----------------------------PLEASE NOTE------------------------------#
    # The owner of this website has not reviewed the contents of this #
    # file. If you feel that the content of this file may be violating #
    # copyright law, you may not use the information displayed here in #
    # any way. #
    #----------------------------------------------------------------------#


    INTRO (Get Louder Each Bar)

    G|---------------------------------|---------------------------------|
    D|---------------------------------|---------------------------------|
    A|-7-7-7-7-7-7-7-7-7-7-7-7-7-7-7-7-|-7-7-7-7-7-7-7-7-7-7-7-7-7-7-7-7-|
    E|---------------------------------|---------------------------------|
    1 + + + 2 + + + 3 + + + 4 + + + 1 + + + 2 + + + 3 + + + 4 + + +

    G|---------------------------------|---------------------------------|
    D|---------------------------------|---------------------------------|
    A|-7-7-7-7-7-7-7-7-7-7-7-7-7-7-7-7-|-7-7-7-7-7-7-7-7-7-7-7-7-7-7-7-7-|
    E|---------------------------------|---------------------------------|
    1 + + + 2 + + + 3 + + + 4 + + + 1 + + + 2 + + + 3 + + + 4 + + +

    G|---------------------------------|---------------------------------|
    D|---------------------------------|---------------------------------|
    A|-7-7-7-7-7-7-7-7-7-7-7-7-7-7-7-7-|-7-7-7-7-7-7-7-7-7-7-7-7-7-7-7-7-|
    E|---------------------------------|---------------------------------|
    1 + + + 2 + + + 3 + + + 4 + + + 1 + + + 2 + + + 3 + + + 4 + + +

    G|---------------------------------|---------------------------------|
    D|---------------------------------|---------------------------------|
    A|-7-7-7-7-7-7-7-7-7-7-7-7-7-7-7-7-|-7-7-7-7-7-7-7-7-----------------|
    E|---------------------------------|-----------------0-0-0-0-0-0-0-0-|
    1 + + + 2 + + + 3 + + + 4 + + + 1 + + + 2 + + + 3 + + + 4 + + +
    T T T T T T T T T T T T T T T T

    G|---------------------------------|---------------------------------|
    D|---------------------------------|---------------------------------|
    A|---------------------------------|---------------------------------|
    E|---------------------------------|---------------------------------|
    1 + + + 2 + + + 3 + + + 4 + + + 1 + + + 2 + + + 3 + + + 4 + + +

    G|---------------------------------|---------------------------------|
    D|---------------------------------|---------------------------------|
    A|---------------------------------|---------------------------------|
    E|---------------------------------|---------------------------------|
    1 + + + 2 + + + 3 + + + 4 + + + 1 + + + 2 + + + 3 + + + 4 + + +

    VERSE

    G|---------------------------------|---------------------------------|
    D|---------------------------------|---------------------------------|
    A|---------------------------------|---------------------------------|
    E|---------------------------------|---------------------------------|
    1 + + + 2 + + + 3 + + + 4 + + + 1 + + + 2 + + + 3 + + + 4 + + +

    G|---------------------------------|---------------------------------|
    D|---------------------------------|---------------------------------|
    A|---------------------------------|---------------------------------|
    E|---------------------------------|---------------------------------|
    1 + + + 2 + + + 3 + + + 4 + + + 1 + + + 2 + + + 3 + + + 4 + + +

    G|-----7---9---------7---9---X-----|-----7---9---------7---9---X-----|
    D|---------------------------------|---------------------------------|
    A|-7-----------7---7---X---X---7---|-5-----------5---5---X---X-------|
    E|---------------------------------|-----------------------------5---|
    1 + + + 2 + + + 3 + + + 4 + + + 1 + + + 2 + + + 3 + + + 4 + + +
    T P P T T P T P T P T T P P T T P T P T P T

    G|---------------------------------|---------------------------------|
    D|-----9---9---------9---9---X-----|-----10--10--------10--10--X-----|
    A|---------------------------------|-----------------------------5---|
    E|-7-----------7---7---X---X---7---|-8-----------8---8---X---X-------|
    1 + + + 2 + + + 3 + + + 4 + + + 1 + + + 2 + + + 3 + + + 4 + + +
    T P P T T P T P T P T T P P T T P T P T P T

    G|-----7---9---------7---9---X-----|-----7---9---------7---9---X-----|
    D|---------------------------------|---------------------------------|
    A|-7-----------7---7---X---X---7---|-5-----------5---5---X---X-------|
    E|---------------------------------|-----------------------------5---|
    1 + + + 2 + + + 3 + + + 4 + + + 1 + + + 2 + + + 3 + + + 4 + + +
    T P P T T P T P T P T T P P T T P T P T P T

    G|---------------------------------|---------------------------12--X-|
    D|-----9---9---------9---9---X-----|-----10--10--------10--X---------|
    A|---------------------------------|-------------------------10--X---|
    E|-7-----------7---7---X---X---7---|-8-----------8---8---X-----------|
    1 + + + 2 + + + 3 + + + 4 + + + 1 + + + 2 + + + 3 + + + 4 + + +
    T P P T T P T P T P T T P P T T P T P T P T P

    G|-----7---9---------7---9---X-----|-----7---9---------7---9---X-----|
    D|---------------------------------|---------------------------------|
    A|-7-----------7---7---X---X---7---|-5-----------5---5---X---X-------|
    E|---------------------------------|-----------------------------5---|
    1 + + + 2 + + + 3 + + + 4 + + + 1 + + + 2 + + + 3 + + + 4 + + +
    T P P T T P T P T P T T P P T T P T P T P T

    G|---------------------------------|---------------------------------|
    D|-----9---9---------9---9---X-----|-----10--10--------10--10--X-----|
    A|---------------------------------|-----------------------------5---|
    E|-7-----------7---7---X---X---7---|-8-----------8---8---X---X-------|
    1 + + + 2 + + + 3 + + + 4 + + + 1 + + + 2 + + + 3 + + + 4 + + +
    T P P T T P T P T P T T P P T T P T P T P T

    CHORUS

    G|---------------------------------|---------------------------------|
    D|-------X-9-1012------------------|-9-------9---10----------X-0-1012|
    A|-10------------------------------|-------12--12--------------------|
    E|---------------------------------|---------------------------------|
    1 + + + 2 + + + 3 + + + 4 + + + 1 + + + 2 + + + 3 + + + 4 + + +

    G|---------------------------------|---------------------------------|
    D|---------9-1012----------12------|-9-------9---10----------14--12--|
    A|-10----10------------------------|-------12--12--------------------|
    E|---------------------------------|---------------------------------|
    1 + + + 2 + + + 3 + + + 4 + + + 1 + + + 2 + + + 3 + + + 4 + + +

    G|---------------------------------|-------12------------------------|
    D|---------9-1012------------------|-9---------9-10----------1012----|
    A|-10------------------------------|---------------------------------|
    E|---------------------------------|---------------------------------|
    1 + + + 2 + + + 3 + + + 4 + + + 1 + + + 2 + + + 3 + + + 4 + + +

    G|---------------------------------|---------------------------------|
    D|---------9-1012----------12------|-9-------10----------------------|
    A|-10------------------------------|---------------------------------|
    E|---------------------------------|---------------------------------|
    1 + + + 2 + + + 3 + + + 4 + + + 1 + + + 2 + + + 3 + + + 4 + + +

    VERSE

    G|-----7---9---------7---9---X-----|-----7---9---------7---9---X-----|
    D|---------------------------------|---------------------------------|
    A|-7-----------7---7---X---X---7---|-5-----------5---5---X---X-------|
    E|---------------------------------|-----------------------------5---|
    1 + + + 2 + + + 3 + + + 4 + + + 1 + + + 2 + + + 3 + + + 4 + + +
    T P P T T P T P T P T T P P T T P T P T P T

    G|---------------------------------|-------------------12--X---11--X-|
    D|-----9---9---------9---9---X-----|-----10--10----------------------|
    A|---------------------------------|-----------------10--X---9---X---|
    E|-7-----------7---7---X---X---7---|-8-----------8-------------------|
    1 + + + 2 + + + 3 + + + 4 + + + 1 + + + 2 + + + 3 + + + 4 + + +
    T P P T T P T P T P T T P P T T P T P T P T P

    G|-----7---9---------7---9---X-----|-----7---9---------7---9---X-----|
    D|---------------------------------|---------------------------------|
    A|-7-----------7---7---X---X---7---|-5-----------5---5---X---X-------|
    E|---------------------------------|-----------------------------5---|
    1 + + + 2 + + + 3 + + + 4 + + + 1 + + + 2 + + + 3 + + + 4 + + +
    T P P T T P T P T P T T P P T T P T P T P T

    G|---------------------------------|---------------------------------|
    D|-----9---9---------9---9---X-----|-----10--10--------10--10--X-----|
    A|---------------------------------|-----------------------------5---|
    E|-7-----------7---7---X---X---7---|-8-----------8---8---X---X-------|
    1 + + + 2 + + + 3 + + + 4 + + + 1 + + + 2 + + + 3 + + + 4 + + +
    T P P T T P T P T P T T P P T T P T P T P T

    G|-----7---9---------7---9---X-----|-----7---9---------7---9---X-----|
    D|---------------------------------|---------------------------------|
    A|-7-----------7---7---X---X---7---|-5-----------5---5---X---X-------|
    E|---------------------------------|-----------------------------5---|
    1 + + + 2 + + + 3 + + + 4 + + + 1 + + + 2 + + + 3 + + + 4 + + +
    T P P T T P T P T P T T P P T T P T P T P T

    G|---------------------------------|---------------------------------|
    D|-----9---9---------9---9---X-----|-----10--10--------14--12--------|
    A|---------------------------------|---------------------------12----|
    E|-7-----------7---7---X---X---7---|-8-----------8-------X---X---120-|
    1 + + + 2 + + + 3 + + + 4 + + + 1 + + + 2 + + + 3 + + + 4 + + +
    T P P T T P T P T P T T P P T P T P T P T T

    G|-----7---9---------7---9---X-----|-----7---9---------7---9---X-----|
    D|---------------------------------|---------------------------------|
    A|-7-----------7---7---X---X---7---|-5-----------5---5---X---X-------|
    E|---------------------------------|-----------------------------5---|
    1 + + + 2 + + + 3 + + + 4 + + + 1 + + + 2 + + + 3 + + + 4 + + +
    T P P T T P T P T P T T P P T T P T P T P T

    G|---------------------------------|---------------------------------|
    D|-----9---9---------9---9---X-----|-----10--10--------10--10--X-----|
    A|---------------------------------|-----------------------------5---|
    E|-7-----------7---7---X---X---7---|-8-----------8---8---X---X-------|
    1 + + + 2 + + + 3 + + + 4 + + + 1 + + + 2 + + + 3 + + + 4 + + +
    T P P T T P T P T P T T P P T T P T P T P T

    CHORUS

    G|---------------------------------|-------12--12--------------------|
    D|-------0-9-1012------------------|-9-------9---10----------1210-9--|
    A|-10------------------------------|---------------------------------|
    E|---------------------------------|---------------------------------|
    1 + + + 2 + + + 3 + + + 4 + + + 1 + + + 2 + + + 3 + + + 4 + + +

    G|---------------------------------|-------12------------------------|
    D|-------0-9-1012------------------|-9-------9---10------14----12109-|
    A|-10------------------------------|---------------------------------|
    E|---------------------------------|---------------------------------|
    1 + + + 2 + + + 3 + + + 4 + + + 1 + + + 2 + + + 3 + + + 4 + + +

    G|---------------------------------|---------------------------------|
    D|---------9-1012------------------|-9-------9-1210--------------9---|
    A|-10----10------------------------|-------12----------------------12|
    E|---------------------------------|---------------------------------|
    1 + + + 2 + + + 3 + + + 4 + + + 1 + + + 2 + + + 3 + + + 4 + + +

    G|---------------------------------|---------------------------------|
    D|---------9-1012------------------|-9-------10----------------------|
    A|-10------------------------------|---------------------------------|
    E|---------------------------------|---------------------------------|
    1 + + + 2 + + + 3 + + + 4 + + + 1 + + + 2 + + + 3 + + + 4 + + +

    BRIDGE

    G|-----9---9-----------------------|-14------------------------------|
    D|---------------------------------|-----12--0---12------------------|
    A|-7-----------7-------------------|---------------------------------|
    E|---------------------------------|---------------------------------|
    1 + + + 2 + + + 3 + + + 4 + + + 1 + + + 2 + + + 3 + + + 4 + + +

    G|---------------------------------|---------------------------------|
    D|-----9---9-----------------------|-12--10------10------------------|
    A|---------------------------------|---------------------------------|
    E|-7-----------7-------------------|---------8-----------------------|
    1 + + + 2 + + + 3 + + + 4 + + + 1 + + + 2 + + + 3 + + + 4 + + +

    G|-----9---9-----------------------|-14------------------------------|
    D|---------------------------------|-----12--0---12------------------|
    A|-7-----------7-------------------|---------------------------------|
    E|---------------------------------|---------------------------------|
    1 + + + 2 + + + 3 + + + 4 + + + 1 + + + 2 + + + 3 + + + 4 + + +

    G|---------------------------------|---------------------------------|
    D|-----9---9-----------------------|-12--10------10------------------|
    A|---------------------------------|---------------------------------|
    E|-7-----------7-------------------|---------8-----------10------11--|
    1 + + + 2 + + + 3 + + + 4 + + + 1 + + + 2 + + + 3 + + + 4 + + +

    G|-----9---9-----------------------|-14------------------------------|
    D|---------------------------------|-----12--0---12------------------|
    A|-7-----------7-------------------|---------------------------------|
    E|---------------------------------|---------------------------------|
    1 + + + 2 + + + 3 + + + 4 + + + 1 + + + 2 + + + 3 + + + 4 + + +

    G|---------------------------------|---------------------------------|
    D|-----9---9-----------------------|-12--10------10------------------|
    A|---------------------------------|---------------------1012--------|
    E|-7-----------7-------------------|---------8-------------------1011|
    1 + + + 2 + + + 3 + + + 4 + + + 1 + + + 2 + + + 3 + + + 4 + + +

    G|-----9---9-----------------------|-14------------------------------|
    D|---------------------------------|-----12--0---12------------------|
    A|-7-----------7-------------------|---------------------------------|
    E|---------------------------------|---------------------------------|
    1 + + + 2 + + + 3 + + + 4 + + + 1 + + + 2 + + + 3 + + + 4 + + +

    G|---------------------------------|---------------------------------|
    D|-----9---9-----------------------|-12--10------10------------------|
    A|---------------------------------|---------------------------------|
    E|-7-----------7-------------------|---------8-----------------------|
    1 + + + 2 + + + 3 + + + 4 + + + 1 + + + 2 + + + 3 + + + 4 + + +

    INTERLUDE

    G|-----7---9---------7---9---X-----|-----7---9---------7---9---X-----|
    D|---------------------------------|---------------------------------|
    A|-7-----------7---7---X---X---7---|-5-----------5---5---X---X-------|
    E|---------------------------------|-----------------------------5---|
    1 + + + 2 + + + 3 + + + 4 + + + 1 + + + 2 + + + 3 + + + 4 + + +
    T P P T T P T P T P T T P P T T P T P T P T

    G|---------------------------------|-----------------------7---------|
    D|-----9---9---------9---9---X-----|-----10--10--------7-9-----5-7-5-|
    A|---------------------------------|---------------------------------|
    E|-7-----------7---7---X---X---7---|-8-----------8-------------------|
    1 + + + 2 + + + 3 + + + 4 + + + 1 + + + 2 + + + 3 + + + 4 + + +
    T P P T T P T P T P T T P P T T P T P T P T

    VERSE

    G|-----7---9---------7---9---X-----|-----7---9---------7---9---X-----|
    D|---------------------------------|---------------------------------|
    A|-7-----------7---7---X---X---7---|-5-----------5---5---X---X-------|
    E|---------------------------------|-----------------------------5---|
    1 + + + 2 + + + 3 + + + 4 + + + 1 + + + 2 + + + 3 + + + 4 + + +
    T P P T T P T P T P T T P P T T P T P T P T

    G|---------------------------------|-------------------12--X---14-X--|
    D|-----9---9---------9---9---X-----|-----10--10----------------------|
    A|---------------------------------|-----------------10--X---12--X---|
    E|-7-----------7---7---X---X---7---|-8-----------8-------------------|
    1 + + + 2 + + + 3 + + + 4 + + + 1 + + + 2 + + + 3 + + + 4 + + +
    T P P T T P T P T P T T P P T T P T P T P T

    G|-----7---9---------7---9---X-----|-----7---9---------7---9---X-----|
    D|---------------------------------|---------------------------------|
    A|-7-----------7---7---X---X---7---|-5-----------5---5---X---X-------|
    E|---------------------------------|-----------------------------5---|
    1 + + + 2 + + + 3 + + + 4 + + + 1 + + + 2 + + + 3 + + + 4 + + +
    T P P T T P T P T P T T P P T T P T P T P T

    G|---------------------------------|---------------------------------|
    D|-----9---9---------9---9---X-----|-----10--10--------10--10--X-----|
    A|---------------------------------|---------------------------------|
    E|-7-----------7---7---X---X---7---|-8-----------8---8---X---X---8---|
    1 + + + 2 + + + 3 + + + 4 + + + 1 + + + 2 + + + 3 + + + 4 + + +
    T P P T T P T P T P T T P P T T P T P T P T

    G|-----7---9---------7---9---X-----|-----7---9---------7---9---X-----|
    D|---------------------------------|---------------------------------|
    A|-7-----------7---7---X---X---7---|-5-----------5---5---X---X-------|
    E|---------------------------------|-----------------------------5---|
    1 + + + 2 + + + 3 + + + 4 + + + 1 + + + 2 + + + 3 + + + 4 + + +
    T P P T T P T P T P T T P P T T P T P T P T

    G|---------------------------------|---------------------------------|
    D|-----9---9---------9---9---X-----|-----10--10--------10--10----5H7-|
    A|---------------------------------|-------------------------5H7-----|
    E|-7-----------7---7---X---X---7---|-8-----------8---8---X-----------|
    1 + + + 2 + + + 3 + + + 4 + + + 1 + + + 2 + + + 3 + + + 4 + + +
    T P P T T P T P T P T T P P T T P T P T T

    G|-----7---9---------7---9---X-----|-----7---9---------7---9---X-----|
    D|---------------------------------|---------------------------------|
    A|-7-----------7---7---X---X---7---|-5-----------5---5---X---X-------|
    E|---------------------------------|-----------------------------5---|
    1 + + + 2 + + + 3 + + + 4 + + + 1 + + + 2 + + + 3 + + + 4 + + +
    T P P T T P T P T P T T P P T T P T P T P T

    G|---------------------------------|---------------------------------|
    D|-----9---9---------9---9---X-----|-----10--10--------10--10--X-----|
    A|---------------------------------|-----------------------------5---|
    E|-7-----------7---7---X---X---7---|-8-----------8---8---X---X-------|
    1 + + + 2 + + + 3 + + + 4 + + + 1 + + + 2 + + + 3 + + + 4 + + +
    T P P T T P T P T P T T P P T T P T P T P T

    G|-----7---9---------7---9---X-----|-----7---9---------7---9---X-----|
    D|---------------------------------|---------------------------------|
    A|-7-----------7---7---X---X---7---|-5-----------5---5---X---X-------|
    E|---------------------------------|-----------------------------5---|
    1 + + + 2 + + + 3 + + + 4 + + + 1 + + + 2 + + + 3 + + + 4 + + +
    T P P T T P T P T P T T P P T T P T P T P T

    G|---------------------------------|---------------------------------|
    D|-----9---9---------9---9---X-----|-----10--10--------10--10--X-----|
    A|---------------------------------|-----------------------------5---|
    E|-7-----------7---7---X---X---7---|-8-----------8---8---X---X-------|
    1 + + + 2 + + + 3 + + + 4 + + + 1 + + + 2 + + + 3 + + + 4 + + +
    T P P T T P T P T P T T P P T T P T P T P T

    G|---------------------------------|---------------------------------|
    D|---------------------------------|---------------------------------|
    A|---------------------------------|---------------------------------|
    E|---------------------------------|---------------------------------|
    1 + + + 2 + + + 3 + + + 4 + + + 1 + + + 2 + + + 3 + + + 4 + + +

      Current date/time is Fri Dec 03, 2021 11:03 am