Bassmasta

Would you like to react to this message? Create an account in a few clicks or log in to continue.

Because the original Bassmasta.net is going to be shut down, I am creating this forum to maybe keep the community the site has given us over the last years.


    RHCP - Backwoods

    avatar
    Beechnuts


    Posts : 7
    Join date : 2011-05-06

    RHCP - Backwoods Empty RHCP - Backwoods

    Post  Beechnuts Sun May 08, 2011 2:36 pm




    Author/Artist: Red Hot Chili Peppers
    Title: Backwoods
    Album: The Uplift Mofo Party Plan


    Intro:

    -|------------------------------|------------------------------|-
    -|-------4---2---4---4----2--4--|-------4---2---4---4----2--4--|-
    -|------------------------------|------------------------------|-
    -|--2--x---x---x---x---x--------|--2--x---x---x---x---x--------|-
    S S p S p S p S p S p p S S p S p S p S p S p p

    Verse:

    -|------------------------------|------------------------------|-
    -|-------4---2---4---4----2--4--|-------4---2---4---4----2--4--|-
    -|------------------------------|------------------------------|-
    -|--2--x---x---x---x---x--------|--2--x---x---x---x---x--------|-
    S S p S p S p S p S p p S S p S p S p S p S p p

    Chorus:

    -|----------------------------------------------|-
    -|-----4----------2----------7-----7-----9------|-
    -|----------------------------------------------|-
    -|--2-----2----0-----0----5-----5-----7-----7--|-
    S p S S p S S p S p S p S

    Interlude 1:

    -|-----------------------------------|-----------------------------------|-
    -|-----------------------------------|-----------------------------------|-
    -|-----------------------------------|-----------------------------------|-
    -|--5h7-5h7-5h7-5h7-5h7-5h7-5h7-5h7--|--5h7-5h7-5h7-5h7-5h7-5h7-5h7-5h7--|-

    Chorus before guitar solo:

    -|----------------------------------------------|-------------|-
    -|-----4----------2----------7-----7-----9------|-------------|-
    -|----------------------------------------------|-------------|-
    -|--2-----2----0-----0----5-----5-----7-----7--|----2--------|-
    S p S S p S S p S p S p S S

    Guitar Solo:
    x4 x2
    -|------------------------------|------------------------------|-
    -|-------9---7---9---9----7--9--|-------7---5---7---7----5--7--|-
    -|------------------------------|------------------------------|-
    -|--7--x---x---x---x---x--------|--5--x---x---x---x---x--------|-

    x2
    -|------------------------------|------------------------------|-
    -|-------4---2---4---4----2--4--|-------7---5---7---7----5--7--|-
    -|------------------------------|------------------------------|-
    -|--2--x---x---x---x---x--------|--5--x---x---x---x---x--------|-

    -|------------------------------|-
    -|-------9-----------9----------|-
    -|-------------7h9-------5h7h5--|-
    -|--7--x---x-x-----x---x--------|-

    Interlude 2:
    x4 x3
    -|--------------------------|------------------------------|-
    -|--------------------------|-------4---2---4---4----2--4--|-
    -|--------------------------|------------------------------|-
    -|--2--2---2--2--2--2-2--2--|--2--x---x---x---x---x--------|-

    x2
    -|--------------4p2--4-------4--|------------------------------|-
    -|-------4----------------------|-------4---2---4---4----2--4--|-
    -|------------------------------|------------------------------|-
    -|--2--x---x-x----------x-x-----|--2--x---x---x---x---x--------|-

    -|---------------------------|-----------------------------|-
    -|-------4---2---4---4----2--|-----------------4p2----4p2--|-
    -|---------------------------|-----4--7---7----------------|-
    -|--2--x---x---x---x---x-----|--5-------x------------------|-

    -|------------------------------|---------------------2-------------|-
    -|-------4---2---4---4----2--4--|-------4---2----4------------2-----|-
    -|------------------------------|------------------------0----------|-
    -|--2--x---x---x---x---x--------|--2--x---x---x------------------0--|-

    x3
    -|------------------------------|--------------------------------|-
    -|-------4---2---4---4----2--4--|-------4---2---4--2----1--------|-
    -|------------------------------|--------------------------4--2--|-
    -|--2--x---x---x---x---x--------|--2--x---x---x------------------|-

    x6
    -|------------------------2-----|------------------------------|-
    -|-------4---2---4---4-------4--|-------4---2---4---4----2--4--|-
    -|------------------------------|------------------------------|-
    -|--2--x---x---x---x---x--------|--2--x---x---x---x---x--------|-

    Last Chorus:

    -|----------------------------------------------|-------------|-
    -|-----4----------2----------7-----7-----9------|-------------|-
    -|----------------------------------------------|-------------|-
    -|--2-----2----0-----0----5-----5-----7-----7--|--2--2-2--2--|-
    S p S S p S S p S p S p S S S S S

      Current date/time is Fri Dec 03, 2021 10:48 am