Bassmasta

Would you like to react to this message? Create an account in a few clicks or log in to continue.

Because the original Bassmasta.net is going to be shut down, I am creating this forum to maybe keep the community the site has given us over the last years.


    System of a Down - Question

    Sykk
    Sykk


    Posts : 30
    Join date : 2011-05-06
    Age : 24
    Location : DeBary

    System of a Down - Question Empty System of a Down - Question

    Post  Sykk Sat May 07, 2011 7:35 pm

    (0:16) Intro
    F|------------| |--------------| |------------|
    C|------------| |--------------| |------------|
    G|---4--------| |-----4--------| |--hold note-|
    C|-4--9-77967-|x4|-4-44-9977967-|x4|-4----------|

    (0:32) Verse1
    F|--------------------|
    C|----4--------4------|
    G|--47-75745-47-75745-|
    C|-4--------4---------|

    F|------------------------|
    C|----4-------------------|
    G|--47-75745-2-/9\2-2/9\2-|
    C|-4----------------------|

    F|--------------------|
    C|----4--------4------|
    G|--47-75745-47-75745-|
    C|-4--------4---------|

    F|-------------------------------------|
    C|----4--------------------------------|
    G|--47-75745-2-/9\2-2/9\2-2-/9\2-2/9\2-|
    C|-4-----------------------------------|

    (0:50) Pre-Chorus
    F|---------------|
    C|---------------|
    G|---------------|
    C|-4---0---4---0-|

    (0:58) Chorus
    F|---------------------------------------|
    C|---------------------------------------|
    G|--------------------------2-22222-2222-|
    C|-4-44444-44444-44444-4444--------------|

    F|----------------------------------------------------|
    C|----------------------------------------------------|
    G|--------------------------2-22222-2222-2-22222-2222-|
    C|-4-44444-44444-44444-4444---------------------------|

    (1:17)
    F|------------|
    C|------------|
    G|---4--------|
    C|-4--9-77967-|x2

    (1:20) Verse 2
    F|--------------------|
    C|----4--------4------|
    G|--47-75745-47-75745-|
    C|-4--------4---------|

    F|------------------------|
    C|----4-------------------|
    G|--47-75745-2-/9\2-2/9\2-|
    C|-4----------------------|

    F|--------------------|
    C|----4--------4------|
    G|--47-75745-47-75745-|
    C|-4--------4---------|

    F|-------------------------------------|
    C|----4--------------------------------|
    G|--47-75745-2-/9\2-2/9\2-2-/9\2-2/9\2-|
    C|-4-----------------------------------|

    (1:28) Pre-Chorus)
    F|---------------|
    C|---------------|
    G|---------------|
    C|-4---0---4---0-|

    (1:46) Chorus
    F|---------------------------------------|
    C|---------------------------------------|
    G|--------------------------2-22222-2222-|
    C|-4-44444-44444-44444-4444--------------|

    F|----------------------------------------------------------------|
    C|----------------------------------------------------------------|
    G|--------------------------2-22222-2222-2-22222-2222-------------|
    C|-4-44444-44444-44444-4444---------------------------4-hold note-|

    (2:09)
    F|------------| |---------------| |--Not sure if this--|
    C|------------| |---------------| |----is right--------|
    G|---4--------| |-----4---------| |-----4-44-----------|
    C|-4--9-77967-|x4|-4-44-99-77967-|x4|-4-44----9-997-7967-|x4

    F|------------|
    C|------------|
    G|---4--------|
    C|-4--9-77967-|x4

    (2:38) Chorus
    F|---------| |----------|
    C|---------| |----------|
    G|---FAST!-| |-22222222-|
    C|-4-44440-|x12|----------|x4

    F|---------| |----------|
    C|---------| |----------|
    G|---------| |-22222222-|
    C|-4-44440-|x12|----------|x8

    (3:02)
    F|----------------| |-----------|-------------------------------|
    C|----------------| |-----------|-------------------------------|
    G|---4------------| |-Hold Note-|---4----------4----------------|
    C|-4--9-77967-----|x4|4----------|-4--9-77967-4--9-77967---------|

    well tahts it, enjoy and please comment.


      Current date/time is Fri Dec 03, 2021 9:26 am