Bassmasta

Would you like to react to this message? Create an account in a few clicks or log in to continue.

Because the original Bassmasta.net is going to be shut down, I am creating this forum to maybe keep the community the site has given us over the last years.


2 posters

    System of a Down - Aerials

    Sykk
    Sykk


    Posts : 30
    Join date : 2011-05-06
    Age : 24
    Location : DeBary

    System of a Down - Aerials Empty System of a Down - Aerials

    Post  Sykk Sat May 07, 2011 7:24 pm

    Tuning: CGCF
    So, this is how it looks
    F|-------------------------
    C|-------------------------
    G|-------------------------
    C|-------------------------
    ______________________________________________________________________________
    Intro:
    |-------------------------------------------------------|
    |-------------------------------------------------------|
    |-6-5-3--3-3-3/8-6-5--5-5-5/6-8-10-11-10-8-6-5-3--3-3-3-|
    |-------------------------------------------------------|

    |----------------------------------------------------------------------------------|
    |----------------------------------------------------------------------------------|
    |-15-13-10--10-10-10/17-13-10--10-10-10/15-17-18-20-18-17-15-15-13-13-15--15-15-15-|
    |----------------------------------------------------------------------------------|
    -
    Verse: "Life is a waterfall..."
    |-----------------------------------------|-----------------------------|
    |-----------------------------------------|-----------------------------| 3x
    |-----------------------------------------|-3333-8-3333-6-3333-5-3333-3-|
    |-4--4-4--4--4-4--4--4-4--4--4-4-|-----------------------------|

    |--------------------------------|
    |--------------------------------|
    |--------------------------------|
    |-4--4-4--4--4-4--4--4-4--4--4-4-|



    Chorus:
    |---------------------------------------------------------|
    |---------------------------------------------------------| 2x
    |-6-5-3--3-3-3--8-6-5--5-5-5--6-8-10-11-10-8-6-5-3--3-3-3-|
    E|---------------------------------------------------------|

    Verse: "Life is a waterfall..."
    |------------------------------------------|-----------------------------|
    |------------------------------------------|-----------------------------| 3x
    |------------------------------------------|-3333-8-3333-6-3333-5-3333-3-|
    |-4--4-4--4--4-4--4--4-4--4--4-4-|-----------------------------|

    |--------------------------------|
    |--------------------------------|
    |--------------------------------|
    |-4--4-4--4--4-4--4--4-4--4--4-4-|

    |---------------------------------|
    |---------------------------------|
    |-7-7-7-7-7-7-7-7-5-5-5-5-5-5-5-5-|
    |---------------------------------|



    |------------------------------------------|
    |---------3-1-0~----3-5-6-5-3--------------| 3x
    |-6-5-3~----------6-----------6-5-3--3~----|
    |------------------------------------------|

    |-------------------------------------------------------|
    |-------------------------------------------------------|2 x
    |-6-5-3--3-3-3/8-6-5--5-5-5/6-8-10-11-10-8-6-5-3--3-3-3-|
    |-------------------------------------------------------|

    Outro:
    |-------------------------------------------------------|
    |-------------------------------------------------------|
    |-6-5-3--3-3-3/8-6-5--5-5-5/6-8-10-11-10-8-6-5-3--3~----|
    |-------------------------------------------------------|

    DARK SIDE OF THE MOON
    DARK SIDE OF THE MOON


    Posts : 5
    Join date : 2011-05-08
    Location : Where I Live

    System of a Down - Aerials Empty Re: System of a Down - Aerials

    Post  DARK SIDE OF THE MOON Tue May 10, 2011 1:44 am

    Tuning on this is definitely standard (E-A-D-G). Trust me and play it, it sounds so much better. Notes are excellent, though. 10/10
    Sykk
    Sykk


    Posts : 30
    Join date : 2011-05-06
    Age : 24
    Location : DeBary

    System of a Down - Aerials Empty Re: System of a Down - Aerials

    Post  Sykk Wed May 11, 2011 3:36 am

    DARK SIDE OF THE MOON wrote:Tuning on this is definitely standard (E-A-D-G). Trust me and play it, it sounds so much better. Notes are excellent, though. 10/10

    Trust me its not. Shavo pretty much only plays in CGCF and it sounds a lot better this way if you have the right strings.

    Sponsored content


    System of a Down - Aerials Empty Re: System of a Down - Aerials

    Post  Sponsored content


      Current date/time is Fri Dec 03, 2021 10:29 am