Bassmasta

Would you like to react to this message? Create an account in a few clicks or log in to continue.

Because the original Bassmasta.net is going to be shut down, I am creating this forum to maybe keep the community the site has given us over the last years.


    System of a Down - Pluck

    Sykk
    Sykk


    Posts : 30
    Join date : 2011-05-06
    Age : 24
    Location : DeBary

    System of a Down - Pluck Empty System of a Down - Pluck

    Post  Sykk Sat May 07, 2011 7:33 pm

    Intro:
    F-----------------------------------|
    C-----------------------------------|
    G-----------------------------------| (x4)
    C-3-2-2-2-2-3-2-2-2-2-3-2-2-3-2-----|

    F-----------------------------------|
    C-----------------------------------|
    G-----------------------------------| (x4)
    C-0-0-0-0-2-0-0-0-2-0-2-0-0-0-2-----|

    F---------------------------------|
    C---------------------------------|
    G---------------------------------| (x4)
    C-2-2-2-2-3-2-2-3-2-3-2-2-2-3-----|

    F--------------------|
    C--------------------|
    G--------------------| (x8)
    C-2-2-2-3-2-2-3-2-3--|

    Chorus 1:
    F----------------------------------------------------------|
    C----------------------------------------------------------|
    G-5/7-7-7-7-7/11-11-11-11-11/13-13-13-13-13/8/11-11-11-11--| (x2)
    C----------------------------------------------------------|

    F-----------------------------------|
    C-----------------------------------|
    G-----------------------------------| (x4)
    C-0-0-0-0-2-0-0-0-2-0-2-0-0-0-2-----|

    F----------------------------------------------------------|
    C----------------------------------------------------------|
    G-5/7-7-7-7-7/11-11-11-11-11/13-13-13-13-13/8/11-11-11-11--| (x2)
    C----------------------------------------------------------|

    F-----------------------------------|
    C-----------------------------------|
    G-----------------------------------| (x4)
    C-0-0-0-0-2-0-0-0-2-0-2-0-0-0-2-----|

    Chorus 2:
    F------------------------------------------------------|
    C------------------------------------------------------|
    G----------3-3-3-3-5-3-0-------------------------------| (x4)
    C-2-2-2-2-2-------------5-5-5-5-5-5-5-3-3-3-3-3-3-3----|

    F--------------------------------|
    C--------------------------------|
    G--------------------------------| (x4)
    C-2-2-2-2-3-2-2-3-2-3-2-2-2-3----|

    F----------------------|
    C----------------------|
    G----------------------| (x8)
    C-2-2-2-3-2-2-3-2-3----|

    F-----------------------------------|
    C-----------------------------------|
    G-----------------------------------| (x4)
    C-0-0-0-0-2-0-0-0-2-0-2-0-0-0-2-----|

    F------------------------------------------------------|
    C------------------------------------------------------|
    G----------3-3-3-3-5-3-0-------------------------------| (x4)
    C-2-2-2-2-2-------------5-5-5-5-5-5-5-3-3-3-3-3-3-3----|


      Current date/time is Fri Dec 03, 2021 10:11 am