Bassmasta

Would you like to react to this message? Create an account in a few clicks or log in to continue.

Because the original Bassmasta.net is going to be shut down, I am creating this forum to maybe keep the community the site has given us over the last years.


    Red Hot Chili Peppers - No Chump Love Suckers

    avatar
    Beechnuts


    Posts : 7
    Join date : 2011-05-06

    Red Hot Chili Peppers - No Chump Love Suckers Empty Red Hot Chili Peppers - No Chump Love Suckers

    Post  Beechnuts Sun May 08, 2011 2:34 pm



    Intro:


    G-|----------------------------|-----------------7-----------|-
    D-|--------0h2----------0h2----|--------0h2----5-------7\----|-
    A-|----------------------------|---------------------5-------|-
    E-|--0---x-----0--0---x-----0--|--0---x-----0----------------|-
    S S P S S S P S S S P S S P S P

    G-|----------------------------|-----------------7-----------|-
    D-|--------0h2----------0h2----|--------0h2----5-------7\----|-
    A-|----------------------------|---------------------5-------|-
    E-|--0---x-----0--0---x-----0--|--0---x-----0----------------|-
    S S P S S P P S S S P S S P S P


    Verse: 1, 2, 3 & 4


    G-|----------------------------|-----------------7-----------|-
    D-|--------0h2----------0h2----|--------0h2----5-------7\----|-
    A-|----------------------------|---------------------5-------|-
    E-|--0---x-----0--0---x-----0--|--0---x-----0----------------|-
    S S P S S S P S S S P S S P S P

    G-|----------------------------|-----------------7-----------|-
    D-|--------0h2----------0h2----|--------0h2----5-------7\----|-
    A-|----------------------------|---------------------5-------|-
    E-|--0---x-----0--0---x-----0--|--0---x-----0----------------|-
    S S P S S P P S S S P S S P S P


    Chorus: 1, 2


    G-|------------------------|------------------------|-
    D-|------------------------|------------------------|-
    A-|------------------------|------------------------|-
    E-|--5-5-5-5--5--5\--------|--5-5-5-5--5--5\--------|-


    G-|------------------------|---------------------------|-
    D-|------------------------|---------------------------|-
    A-|------------------------|----3---3---3---3---3---3--|-
    E-|--3-3-3-3--3--3\--------|---------------------------|-



    Chorus: 3


    G-|-----12----12----------------|----11---11---------------|-
    D-|-----------------------------|--------------------------|-
    A-|--10----10-----9--10\--------|--9----9-----8--9\--------|-
    E-|-----------------------------|--------------------------|-
    S P S P S S S P S P S S

    G-|----10---10---------------|----9---9---9-------------|-
    D-|--------------------------|--------------------------|-
    A-|--8----8-----7--8\--------|--7---7---7---7-5\--------|-
    E-|--------------------------|--------------------------|-
    S P S P S S S P S P S P S S (x2)

    G-|----7--------6----------|---------------------------|-
    D-|------------------------|---------------------------|-
    A-|--5---5----4---4--------|----3---3---3---3---3---3--|-
    E-|------------------------|---------------------------|-
    S P S S P S



    Interlude:


    G-|------------------------|----------------------|-
    D-|------------------------|----------------------|-
    A-|------------------------|------------3---------|-
    E-|--5---------------------|-----------------3----|-


    G-|------------------------|----------------------|-
    D-|------------------------|----------------------|-
    A-|------------------------|--3---------3---------|-
    E-|--5---------------------|-------3---------3----|-


    G-|------------------------|----------------------|-
    D-|------------------------|----------------------|-
    A-|------------------------|------------3---------|-
    E-|--5---------------------|-----------------3----|-


    G-|------------------------|----------------------|-
    D-|------------------------|----------------------|-
    A-|------------------------|--3---------3---------|-
    E-|--5---------------------|-------3---------3----|-




    Last Chorus:


    G-|----------------------------|-----------------7-----------|-
    D-|--------0h2----------0h2----|--------0h2----5-------7\----|-
    A-|----------------------------|---------------------5-------|-
    E-|--0---x-----0--0---x-----0--|--0---x-----0----------------|-
    S S P S S S P S S S P S S P S P

    G-|----------------------------|-----------------7-----------|-
    D-|--------0h2----------0h2----|--------0h2----5-------7\----|-
    A-|----------------------------|---------------------5-------|-
    E-|--0---x-----0--0---x-----0--|--0---x-----0----------------|-
    S S P S S P P S S S P S S P S P

    G-|----------------------------|-----------------7-----------|-
    D-|--------0h2----------0h2----|--------0h2----5-------7\----|-
    A-|----------------------------|---------------------5-------|-
    E-|--0---x-----0--0---x-----0--|--0---x-----0----------------|-
    S S P S S S P S S S P S S P S P

    G-|----------------------------|-----------------7-----------|-
    D-|--------0h2----------0h2----|--------0h2----5-------7\----|-
    A-|----------------------------|---------------------5-------|-
    E-|--0---x-----0--0---x-----0--|--0---x-----0----------------|-
    S S P S S P P S S S P S S P S P

    G-|----------------------|-----------------------------|-
    D-|--5---------6---------|--7--------------------------|-
    A-|-------5---------6----|-------7\--------------------|-
    E-|----------------------|-----------------------------|-

      Current date/time is Fri Dec 03, 2021 10:15 am