Bassmasta

Would you like to react to this message? Create an account in a few clicks or log in to continue.

Because the original Bassmasta.net is going to be shut down, I am creating this forum to maybe keep the community the site has given us over the last years.


    Dream Theater - The Dance of Eternity

    Sykk
    Sykk


    Posts : 30
    Join date : 2011-05-06
    Age : 24
    Location : DeBary

    Dream Theater - The Dance of Eternity Empty Dream Theater - The Dance of Eternity

    Post  Sykk Sat May 07, 2011 7:12 pm

    w/phaser sweep
    |--------3-------| |-3-| |-3-| |-3-|
    S S S E E E E E S S S E S S S E E E E E S S S E
    ---------------------------------------------|--------------------------------|
    ---------------------------------------------|--------------------------------|
    ---------------------------------------------|--------------------------------|
    ---------------------------------------------|--------------------------------|
    ---------------------------------------------|--------------------------------|
    --3--------------3-3-3--x--3--x--3--3-3-3-3--|--3-3-3-3--x--3--x--3--3-3-3-3--|


    |-3-| |-3-| |-3-| |-3-|
    S S S E E E E E S S S E S S S E E E E E S S S E
    --------------------------------|--------------------------------|
    --------------------------------|--------------------------------|
    --------------------------------|--------------------------------|
    --------------------------------|--------------------------------|
    --------------------------------|--------------------------------|
    --3-3-3-3--x--3--x--3--3-3-3-3--|--3-3-3-3--x--3--x--3--3-3-3-3--|


    |-3-| |-3-| |-3-| |-3-|
    S S S E E E E E S S S E S S S E E E E E S S S E
    --------------------------------|--------------------------------|
    --------------------------------|--------------------------------|
    --------------------------------|--------------------------------|
    --------------------------------|--------------------------------|
    --------------------------------|--------------------------------|
    --3-3-3-3--x--3--x--3--3-3-3-3--|--3-3-3-3--x--3--x--3--3-3-3-3--|


    phaser off
    |-3-| |-3-| |-3-| |-3-| |-3-| |-3-|
    S S S E E E E E S S S E S S S E E S S S S S S E S S S E
    --------------------------------|----------------------------------------------|
    --------------------------------|----------------------------------------------|
    --------------------------------|----------------------------------------------|
    --------------------------------|----------------------------------------------|
    --------------------------------|----------------------------------------------|
    --3-3-3-3--x--3--x--3--3-3-3-3--|--3-3-3-3-----3-3-3-3-3-3-3--3-3-3-3----------|


    H E Q. H E Q H. Q. Q.
    ---------------------|-------------------|---------------|----------------|
    ---------------------|-------------------|---------------|----------------|
    ---------------------|-------------------|---------------|----------------|
    ---------------------|-------------------|---------------|----------------|
    --3--------L--4------|--3--------L--1----|--0------------|---------2------|
    ---------------------|-------------------|---------------|--1-------------|


    H E Q. H E Q H. Q. Q.
    ---------------------|-------------------|---------------|----------------|
    ---------------------|-------------------|---------------|----------------|
    ---------------------|-------------------|---------------|----------------|
    ---------------------|-------------------|---------------|----------------|
    --3--------L--4------|--3--------L--1----|--0------------|----------------|
    ---------------------|-------------------|---------------|--1------4------|


    E E E E E E E E E E E S S E E E E E E E E E
    ------------------------------|---------------------------|--------------------|
    ------------------------------|---------------------------|--------------------|
    --------------------6---------|---------------------------|-----------------9--|
    ---------10------8-----10--6--|-------------6-8-10--------|--------7--8--7-----|
    -----10------10---------------|--10-----10----------8-----|-----7--------------|
    --8---------------------------|------8-----------------6--|--5-----------------|


    E E E E E E E E E E E E E E E
    -------------------------|------------------------------|
    -------------------------|------------------------------|
    --10---------------6-----|--------------------6---------|
    ---------10--------------|---------10------8-----10--6--|
    ------8------9-----------|-----10------10---------------|
    ----------------7-----9--|--8---------------------------|


    |--3--|
    E E E S S E E E E E E E E E E S S S E E E E E
    ---------------------------|--------------------|------------------------------|
    ---------------------------|--------------------|------------------------------|
    ---------------------------|-----------------9--|--10--------------------------|
    -------------6-8-10--------|--------7--8--7-----|--------------10--6-----------|
    --10-----10----------8-----|-----7--------------|------8-10-11-----------6--4--|
    ------8-----------------6--|--5-----------------|---------------------4--------|


    E S E S S S S S S S S E S E S E S S S S S S S
    --------------------------|-----------------------------|
    --------------------------|-----------------------------|
    --------------------3-5-6-|-----------------------------|
    ----------------3-5-------|---------------5-3-----------|
    --3--4-3--4-3-4-----------|--3--4-3--4-3------4-3-------|
    --------------------------|-----------------------6-4-3-|


    E S E S E E S S S S S S S E S E S S S S S S S S S
    --------------------------------|----------------------------|
    --------------------------------|----------------------------|
    --------------------------3-5-6-|----------------------------|
    ----------------------3-5-------|----------------5-3---------|
    --3--4-3--4-3--4--3-4-----------|--3--4-3--4-3-4-----4-3-----|
    --------------------------------|------------------------6-4-|


    H E Q. H E Q H. Q. Q.
    ---------------------|-------------------|---------------|----------------|
    ---------------------|-------------------|---------------|----------------|
    ---------------------|-------------------|---------------|----------------|
    ---------------------|-------------------|---------------|----------------|
    ---------------------|-------------------|---------------|--3-------------|
    --3--------L--4------|--3--------L--1----|--0------------|---------2------|


    H E Q. H E Q W
    ---------------------|-------------------|-------------------|
    ---------------------|-------------------|-------------------|
    ---------------------|-------------------|-------------------|
    ---------------------|--------------3----|-------------------|
    ---------------------|-------------------|--4----------------|
    --3--------L--4------|--3--------L-------|-------------------|


    >
    Q Q Q H E S E S E E S S S S S S S
    --------------------------|--------------------------------|
    --------------------------|--------------------------------|
    --------------------------|--------------------------3-5-6-|
    --------------------------|----------------------3-5-------|
    --3-----------------------|--3--4-3--4-3--4--3-4-----------|
    --------------------------|--------------------------------|


    E S E S E S S S S S S S E S E S S S S S S S S Q. E Q Q
    -----------------------------|--------------------------|----------------------|
    -----------------------------|--------------------------|----------------------|
    -----------------------------|--------------------3-5-6-|----------------------|
    ---------------5-3-----------|----------------3-5-------|----------------------|
    --3--4-3--4-3------4-3-------|--3--4-3--4-3-4-----------|--6------4--L---------|
    -----------------------6-4-3-|--------------------------|-----------------3----|


    slap with thumb
    S T T T T T T T
    S S S E S E E E H.
    ----------------------------------------|---------------|
    --------------------9-16--------10--12--|---------------|
    --------------------------7-10----------|---------------|
    ------------------7---------------------|---------------|
    --0-------------------------------------|---------------|
    ----------------------------------------|---------------|


    S S S S S S S S S S S S E E E E S S S S S S S S
    --------------------------------------|------------------|
    --------------------------------------|--------7-3-------|
    --------4-4-4-------4-4-4----4--5-----|------6-----4-----|
    --------------------------4--------3--|----5---------5---|
    --2-2-2-------2-2-2-------------------|--4-------------6-|
    --------------------------------------|------------------|


    S S S S S S S S S S S S E E E E S S S S S S S S
    --------------------------------------|------------------|
    --------------------------------------|--7-----3---------|
    --------4-4-4-------4-4-4----4--5-----|----6-----4-------|
    --------------------------4--------3--|------5-----5---4-|
    --2-2-2-------2-2-2-------------------|--------------3---|
    --------------------------------------|------------------|


    S S S S S S S S S S S S E E E E S S S S S S S S
    --------------------------------------|------------------|
    --------------------------------------|--------7---------|
    --------4-4-4-------4-4-4----4--5-----|------8-----6-----|
    --------------------------4--------3--|----9-----7---5---|
    --2-2-2-------2-2-2-------------------|--6-------------4-|
    --------------------------------------|------------------|


    |-6-| |-6-| |-6-| |-6-|
    S S S S S S S S S S S S E E E E S S S S S S E S S S S S S
    --------------------------------------|-----------------------------|
    --------------------------------------|-----------------------------|
    --------4-4-4-------4-4-4----4--5-----|-----------------------------|
    --------------------------4--------3--|-----------------------------|
    --2-2-2-------2-2-2-------------------|--5-4-4-3-3-2-1--------------|
    --------------------------------------|-----------------5-4-3-3-2-2-|


    S S S S S S S S S S S S S S S S S S S S S S S S S S S S S S S S S S S S S S S
    --------------------------------------------------------------------------------
    --------------------------------------------------------------------------------
    --------------------------------------------------------------------------------
    --------------------------------------------------------------------------------
    --------------------------------------------------------------------------------
    --0-0-0-0---0-0-0-0---0-0-0-0---0-0-0-0---0-0-0-0---0-0-0-0---0-0-0-0---0-0-0-0-


    S S S S S S S S S S S S S S S S S S S S S S S S S S S S S S S S S S S S S S S
    --------------------------------------------------------------------------------
    --------------------------------------------------------------------------------
    --------------------------------------------------------------------------------
    --------------------------------------------------------------------------------
    --------------------------------------------------------------------------------
    --0-0-0-0---0-0-0-0---0-0-0-0---0-0-0-0---0-0-0-0---0-0-0-0---0-0-0-0---0-0-0-0-


    S S S S S S S S S S S S S S S S S S S S S S S S S S S S S S S S S S S S S S S
    --------------------------------------------------------------------------------
    --------------------------------------------------------------------------------
    --------------------------------------------------------------------------------
    --------------------------------------------------------------------------------
    --7-7-7-7---7-7-7-7---7-7-7-7---7-7-7-7---7-7-7-7---7-7-7-7---7-7-7-7---7-7-7-7-
    --------------------------------------------------------------------------------


    S S S E S S S E S S S E S S S E S S S E S S S E S S S E S
    -------------------------------------------------------------------|
    -------------------------------------------------------------------|
    -------------------------------------------------------------------|
    -------------------------------------------------------------------|
    --7-7-7-7--7-7-7-7--7-7-7-7--7-7-7-7--7-7-7-7--7-7-7-7--7-7-7-7----|
    -------------------------------------------------------------------|


    H
    ------------|
    ------------|
    ------------|
    ------------|
    --7\--------|
    ------------|


    S S S S S S S S S S S S S S S S S S S S S S S S S S S S S S S S S S S S S S S
    --------------------------------------------------------------------------------
    --------------------------------------------------------------------------------
    --------------------------------------------------------------------------------
    --------------------------------------------------------------------------------
    --0-0-0-0---0-0-0-0---0-0-0-0---0-0-0-0---0-0-0-0---0-0-0-0---0-0-0-0---0-0-0-0-
    --------------------------------------------------------------------------------


    S S S S S S S S S S S S S S S S S S S S S S S S S S S S S S S S S S S S S S S
    --------------------------------------------------------------------------------
    --------------------------------------------------------------------------------
    --------------------------------7-7-7-7-----------------------------------------
    --7-7-7-7---7-7-7-7---9-9-9-9-------------7-7-7-7---7-7-7-7---9-9-9-9---9-9-9-9-
    --------------------------------------------------------------------------------
    --------------------------------------------------------------------------------


    S S S S S S S S S S S S S S S S Q Q Q Q
    -----------------------------------|----------------------|
    -----------------------------------|----------------------|
    -----------------------------------|----------------------|
    --7-----6--------------------------|----------------------|
    ----7-0---7-0---10-9-0-8-7-0-6-5---|--9---------8---------|
    ---------------------------------7-|-------8---------7----|


    S S S S S S S S S S S S S S S S S S S S S S S S S S S S S S S S
    ----------------------------------|----------------------------------|
    ----------------------------------|----------------------------------|
    ----------------------------------|--5-------2-----------------------|
    --7-----6-------5-4---3-2---1-0---|----3-4-6-------3-4-----0-1-0-----|
    ----7-0---7-0-------0-----0-----2-|------------5-6-----2-3-------3-2-|
    ----------------------------------|----------------------------------|


    S S S S S S S S S S S S S S S S S S S S S S S S S S S S S S S S
    ----------------------------------|----------------------------------|
    ----------------------------------|----------------------------------|
    ----------------------------------|----------------------------------|
    --7-----6-------5-4---3-2---1-0---|------------------2-3-4-5-6---6-9-|
    ----7-0---7-0-------0-----0-----2-|--3-2-0-2-----2-3-----------7-----|
    ----------------------------------|----------4-5---------------------|


    S S S S S S S S S S S S S S S S E E S E S H
    ----------------------------------|------------------------|
    ----------------------------------|------------------------|
    ----------------------------------|------------------------|
    --7-----6-------5-4---3-2---1-0---|--3--3--3-3--2-L--------|
    ----7-0---7-0-------0-----0-----2-|------------------------|
    ----------------------------------|------------------------|


    E E E S S S E S E E E E S S S S S S E E E
    ----------------------------|-----------------------------|
    ----------------------------|-----------------------------|
    ----------------------------|-----------------------------|
    ----------------------------|-----------------------------|
    ----------------------------|-----------------------------|
    --5--5--0--0-5-L-5--5-0--0--|--2--2--1-1---0-L-0-0--3--4--|


    E E E S S S E S E E E E S S S S S S E E E
    ----------------------------|-----------------------------|
    ----------------------------|-----------------------------|
    ----------------------------|-----------------------------|
    ----------------------------|-----------------------------|
    ----------------------------|-----------------------------|
    --5--5--0--0-5-L-5--5-0--0--|--7--7--7-7---0-L-0-8--7--6--|


    E S S E S S E S S E S S E E S S S S S S E E E
    ------------------------------|-----------------------------|
    ------------------------------|-----------------------------|
    ------------------------------|-----------------------------|
    ------------------------------|-----------------------------|
    ------------------------------|-----------------------------|
    --5--0-0-4--0-0-3--0-0-2--0-0-|--1--1--1-1---0-L-0-0--3--4--|


    > > > > >
    E S S E S S E S S E E E. S E E S E. Q
    -----------------------------|------------------------------|
    -----------------------------|------------------------------|
    -----------------------------|------------------------------|
    -----------------------------|------------------------------|
    -----------------------------|------------------------------|
    --5--0-0-7--0-0-8--0-0-9--0--|--10---10-L--10--L-10---10----|


    W/fuzz distortion
    >
    Q Q H S S S S S S S S S S S S S S S S
    -----------------------|---------------------------------------------------|
    -----------------------|---------------------------------------------------|
    -----------------------|--2------------------2-2-2-2-2-2-2-2-2-2-2-2-2-2-2-|
    -----------------------|---------------------------------------------------|
    -----------------------|---------------------------------------------------|
    --12\------------------|---------------------------------------------------|


    S S S S S S S S S S S S S S S S S S S S S S S S S S S S S S S S
    ----------------------------------|----------------------------------|
    ----------------------------------|----------------------------------|
    --0-0-0-0-0-0-0-0-0-0-0-0-0-0-0-0-|----------------------------------|
    ----------------------------------|--0-0-0-0-0-0-0-0-0-0-0-0-0-0-0-0-|
    ----------------------------------|----------------------------------|
    ----------------------------------|----------------------------------|


    S S S S S S S S S S S S S S S S S S S S S S S S S S S S S S S S
    ----------------------------------|----------------------------------|
    ----------------------------------|----------------------------------|
    ----------------------------------|--2-2-2-2-2-2-2-2-2-2-2-2-2-2-2-2-|
    ----------------------------------|----------------------------------|
    --1-1-1-1-1-1-1-1-1-1-1-1-1-1-1-1-|----------------------------------|
    ----------------------------------|----------------------------------|


    S S S S S S S S S S S S S S S S S S S S S S S S S S S S S S S S
    ----------------------------------|----------------------------------|
    ----------------------------------|----------------------------------|
    --0-0-0-0-0-0-0-0-0-0-0-0-0-0-0-0-|----------------------------------|
    ----------------------------------|--0-0-0-0-0-0-0-0-0-0-0-0-0-0-0-0-|
    ----------------------------------|----------------------------------|
    ----------------------------------|----------------------------------|


    S S S S S S S S S S S S S S S S S S S S S S S S S S S S S S S S
    ----------------------------------|----------------------------------|
    ----------------------------------|----------------------------------|
    ----------------------------------|----------------------------------|
    ----------------------------------|----------------------------------|
    --1-1-1-1-1-1-1-1-1-1-1-1-1-1-1-1-|--0-0-0-0-0-0-0-0-0-0-0-0-0-0-0-0-|
    ----------------------------------|----------------------------------|


    S S S S S S S S S S S S S S S S
    ----------------------------------|
    ----------------------------------|
    ----------------------------------|
    ----------------------------------|
    --1-1-1-1-1-1-1-1-3-3-3-3-3-3-3-3-|
    ----------------------------------|


    W/heavy fuzz
    |-------6-------| |--6--| |--6--| |--| |----5---|
    S S S S S S S S S S E S S S E S S S S
    -----------------------------------------------------------------------|
    -----------------------------------------------------------------------|
    -------------------------------------------------------10--------------|
    --10-----------12-12-12-12-12-10-12-12-12-12--10-12-12-----12-12-12-12-|
    -----------------------------------------------------------------------|
    -----------------------------------------------------------------------|


    |-----5-----| |--6--| |--6--|
    S S S S S S S S S S S T T T T S S S S S S
    ------------------------------------------------------------------|
    ------------------------------------------------------------------|
    --------10-12-12-14-14-12-10----------10-12-12S-15-15-15-10-------|
    --10-12----------------------12-10-12-----------------------12-12-|
    ------------------------------------------------------------------|
    ------------------------------------------------------------------|


    |--6--| |--6--| |------5-----|
    S S T T T T S S S S S S S S S S S S S S S
    -------------------------------------------------------------------|
    -------------------------------------------------------------------|
    --------10-12S-14-15-17-17-17-10-------------12S-15-17-18-18-18-10-|
    --10-12--------------------------12-12-10-12-----------------------|
    -------------------------------------------------------------------|
    -------------------------------------------------------------------|


    |--3--| |--6--| |--6--|
    S S S S E S T T S S S S S S S S S S S
    ------------------------------------------16-17-16-16-------|
    ---------------------14-14-16-19-16-17-19-------------17-16-|
    -----15-17-18-19--L\----------------------------------------|
    --12--------------------------------------------------------|
    ------------------------------------------------------------|
    ------------------------------------------------------------|


    |----5---| |-----5-----|
    S S S E S S S S S S S S S S S S S
    ------------------------------------------------------|
    --14--------------14----------------------------------|
    -----17-15-15--17----15-14-12----------12-14-12-------|
    ------------------------------14-14-15----------15-14-|
    ------------------------------------------------------|
    ------------------------------------------------------|


    |-----5-----| |--6--| |--6--| |-----5-----|
    S S S S S S S S S S S S S S S S S S S S
    -----------------------------14-16-18-16-14------------------|
    --------------------14-16-17----------------17-16-L-14-------|
    --------15-17-15-17------------------------------------15-14-|
    --17-19------------------------------------------------------|
    -------------------------------------------------------------|
    -------------------------------------------------------------|


    S E. S E. S S S S S S S S S S S S S S S S Q E S S
    -----------------------------------|-------------------------------------|
    ----------------------7------------|------------9--9S-11-11--9-----------|
    --12--------------7-7-9-7-7-9-9-10-|--10-9-9-9-10-10S-12-12-10-----------|
    -----15---14-12--------------------|-------------------------------------|
    -----------------------------------|------------------------------5------|
    -----------------------------------|---------------------------------8-6-|


    E S E S E S S S S E S S E S E S E S S S S E S S
    ------------------------------|------------------------------|
    ------------------------------|------------------------------|
    ------------------------------|------------------------------|
    ------------------------------|---------------5-7-5-7--------|
    -----5-7---------------5------|-----7-8---------------5------|
    --5-------8-5--6-8-6-5----8-6-|--5-------8-5-------------8-6-|


    E S E S E S S S S S S E S S S S S S S S E S S E S S
    -----------------------|---------------------------------------|
    -----------------------|---------------------------------------|
    -----------------------|---------------------------------------|
    -----------------------|---------------5-7---8-7-L-------------|
    -----5-7---------------|----5-7---------------------8-7-5------|
    --5-------8-5--6-8-6-5-|---------8-5-----------------------8-6-|


    E S E S E S S S S E S S E S E S E S S S S E S S
    ------------------------------|------------------------------|
    ------------------------------|------------------------------|
    ------------------------------|------------------------------|
    ------------------------------|---------------5-7-5-7--------|
    -----5-7---------------5------|-----7-8---------------5------|
    --5-------8-5--6-8-6-5----8-6-|--5-------8-5-------------8-6-|


    E S E S E S S S S S S E S S S S E S S E S S
    -----------------------|-------------------------------|
    -----------------------|-------------------------------|
    -----------------------|-------------------------------|
    -----------------------|---------------5-7--8-7-L------|
    -----5-7---------------|----5-7--------------------8-7-|
    --5-------8-5--6-8-6-5-|---------8-5-------------------|


    S S S S S S S S S S S S S S S S S S S S S S S S S S S S S S S S
    ----------------------------------|----------------------------------|
    ----------------------------------|----------------------------------|
    ----------------------------------|----------------------------------|
    ----------------------------------|----------------------------------|
    --5-0-3-1-0-0-5-7-0-3-0-0-1-3-1-0-|--5-0-3-1-0-0-5-7-0-3-0-0-1-3-1-0-|
    ----------------------------------|----------------------------------|


    S S S S S S S S S S S S S S S S S S S S S S S S S S S S S S S S
    ----------------------------------|----------------------------------|
    ----------------------------------|----------------------------------|
    ----------------------------------|----------------------------------|
    ----------------------------------|----------------------------------|
    --5-0-3-1-0-0-5-7-0-3-0-0-1-3-1-0-|--5-0-3-1-0-0-5-7-0-3-0-0-1-3-1-0-|
    ----------------------------------|----------------------------------|


    S S S S S S S S S S S S S S S S S S S S S S S S S S S S S S S S
    ----------------------------------|--------------------------------------|
    ----------------------------------|--------------------------------------|
    ----------------------------------|--------------------------------------|
    ----------------------------------|--------------------------------------|
    --5-0-3-1-0-0-5-7-0-3-0-0-1-3-1-0-|--5-0-3-1-0-0-7-8-0-3-0-0-10-12-10-12-|
    ----------------------------------|--------------------------------------|


    S S S S S S S S S S S S S S S S S S S S S S S S S S S S E S S
    ----------------------------------|-------------------------------------|
    ----------------------------------|-------------------------------------|
    ----------------------------------|-------------------------------------|
    ----------------------------------|---------------------------------8-7-|
    --5-0-3-1-0-0-5-7-0-3-0-0-1-3-1-0-|--0-5-7-0-3-0-0-10-12-0-13-12-L------|
    ----------------------------------|-------------------------------------|


    S S S S S S S S S S S S S S S S S S S S S S S S S S S S S S S S
    ----------------------------------|----------------------------------|
    ----------------------------------|----------------------------------|
    ----------------------------------|----------------------------------|
    --5-0-3-2-0-0-5-7-0-3-0-0-2-3-2-0-|--5-0-3-2-0-0-5-7-0-3-0-0-2-3-2-0-|
    ----------------------------------|----------------------------------|
    ----------------------------------|----------------------------------|


    S S S S S S S S S S S S S S S S S S S S S S S S S S S S S S S S
    ----------------------------------|----------------------------------|
    ----------------------------------|----------------------------------|
    ----------------------------------|----------------------------------|
    --5-0-3-2-0-0-5-7-0-3-0-0-2-3-2-0-|--5-0-3-2-0-0-5-7-0-3-0-0-2-3-2-0-|
    ----------------------------------|----------------------------------|
    ----------------------------------|----------------------------------|


    S S S S S S S S S S S S S S S S S S S S S S S S S S S S S S S S
    ----------------------------------|----------------------------------|
    ----------------------------------|----------------------------------|
    ----------------------------------|----------------7-5---5-----------|
    --5-0-3-2-0-0-5-7-0-3-0-0-2-3-2-0-|--5-0-3-2-0-0-5-----7---7-5-7-5---|
    ----------------------------------|--------------------------------8-|
    ----------------------------------|----------------------------------|


    S S S S S S S S S S S S S S S S S S S S S S S S S S S S S S S S
    ----------------------------------|----------------------------------|
    ----------------------------------|----------------------------------|
    ----------------------------------|----------------7---5-------------|
    --5-0-3-2-0-0-5-7-0-3-0-0-2-3-2-0-|--5-0-3-2-0-0-5---------5---5-2-0-|
    ----------------------------------|----------------------------------|
    ----------------------------------|----------------------------------|


    S S S S S S S S S S S S S S S S S S S S S S S S S S S S S S S S
    ----------------------------------|----------------------------------|
    ----------------------------------|----------------------------------|
    ----------------------------------|----------------------------------|
    --5-0-3-2-0-0-5-7-0-3-0-0-2-3-2-0-|--7-0-5-3-0-0-7-8-0-5-0-0-3-5-3-0-|
    ----------------------------------|----------------------------------|
    ----------------------------------|----------------------------------|


    S S S S S S S S S S S S S S S S S S S S S S S S S S S S S S S S
    -----------------------------------|-------------------------------------|
    -----------------------------------|-------------------------------------|
    -----------------------------------|-------------------------------------|
    --8-0-7-5-0-0-8-10-0-7-0-0-5-7-5-0-|--10-0-8-7-0-0-10-12-0-8-0-0-7-8-7-0-|
    -----------------------------------|-------------------------------------|
    -----------------------------------|-------------------------------------|


    S S S S S S S S S S S S S S S S S S S S S
    -------------------|--------------------|--------------------|
    -------------------|--------------------|--------------------|
    -------------------|--------------------|--------------------|
    --12-0-10-8-0-0-12-|--14-0-12-10-0-0-14-|--15-0-14-12-0-0-15-|
    -------------------|--------------------|--------------------|
    -------------------|--------------------|--------------------|


    S S S S S S S S S S S S S S S S S S S S S S S S S
    --------------------|------------------|------------------|------------------|
    --------------------|------------------|------------------|------------------|
    --------------------|------------------|------------------|------------------|
    --17-0-15-14-0-0-17-|--19-0-17-15-0-19-|--20-0-19-17-0-20-|--22-0-20-19-0-22-|
    --------------------|------------------|------------------|------------------|
    --------------------|------------------|------------------|------------------|


    S S S S S S S S S E. S S S S S S S S S S S S S S
    ------------------|----------------|------------------|---------------------|
    ------------------|----------------|------------------|------------------10-|
    ------------------|----------------|------------------|-------10-9-9s-10----|
    --24-0-22-24-0-22-|--24-0-22-24\---|----------------8-|--7s-8---------------|
    ------------------|----------------|-------8-7-7s-8---|---------------------|
    ------------------|----------------|--5s-6------------|---------------------|


    tr
    S S S S S S S W S S S S S S S S S S
    --------12-11-11s-12-17-|--16(17)----------------|--9---9-----|--9---9-----|
    --9h-10-----------------|------------------------|------------|------------|
    ------------------------|------------------------|------------|------------|
    ------------------------|------------------------|----0---0-0-|----0---0-0-|
    ------------------------|------------------------|------------|------------|
    ------------------------|------------------------|------------|------------|


    S S S S S S S S S S S S S S S S S S S S S S S S S S S S S
    --9---9---9-----|--9---9-----|--9---9---9-----|--9---9-----|--9---9-----|
    ----------------|------------|----------------|------------|------------|
    ----------------|------------|----------------|------------|------------|
    ----0---0---0-0-|----0---0-0-|----0---0---0-0-|----0---0-0-|----0---0-0-|
    ----------------|------------|----------------|------------|------------|
    ----------------|------------|----------------|------------|------------|


    S S S S S S S S S S S E. E. E. S S S S E. H E Q.
    --9---9---9-----|--------------------|-------------------|---------------------|
    ----------------|--2-----------------|-------------------|---------------------|
    ----------------|--------------------|--------7-7--------|---------------------|
    ----0---0---0-0-|--x-12-----8--------|--------------8\---|---------------------|
    ----------------|---------0-----8\---|--5----------------|--3--------L--4------|
    ----------------|--------------------|-------------------|---------------------|


    H E Q H. Q. Q. H E Q.
    -------------------|---------------|----------------|---------------------|
    -------------------|---------------|----------------|---------------------|
    -------------------|---------------|----------------|---------------------|
    -------------------|---------------|----------------|---------------------|
    --3--------L--1----|--0------------|---------2------|--3--------L--4------|
    -------------------|---------------|--1-------------|---------------------|


    H E Q H. Q. H. Q.
    -------------------|----------------------|----------------------|
    -------------------|----------------------|----------------------|
    -------------------|----------------------|----------------------|
    -------------------|--7------------8------|--5------------4------|
    --3--------L--1----|----------------------|----------------------|
    -------------------|----------------------|----------------------|


    Q. Q. H. Q. H.
    ----------------|----------------------|---------------|
    ----------------|----------------------|---------------|
    ----------------|----------------------|---------------|
    --0-------------|--7------------8------|--5------------|
    ---------1------|----------------------|---------------|
    ----------------|----------------------|---------------|


    hand slide up
    Q. Q E Q E Q. Q E H. Q.
    ---------------------------------------------------|----------------------|
    ---------------------------------------------------|----------------------|
    ---------------------------------------------------|----------------------|
    --4------L----0--L---------------------------------|--7------------8------|
    ----------------------4--L------2----L/------------|----------------------|
    ---------------------------------------------------|----------------------|


    H. Q. Q. Q. H. Q. H.
    ----------------------|----------------|----------------------|---------------|
    ----------------------|----------------|----------------------|---------------|
    ----------------------|----------------|----------------------|---------------|
    --5------------4------|--0-------------|--7------------8------|--5------------|
    ----------------------|---------1------|----------------------|---------------|
    ----------------------|----------------|----------------------|---------------|


    Q. Q E Q E Q. E E E H. Q.
    -----------------------------------------|----------------------|
    -----------------------------------------|----------------------|
    -----------------------------------------|----------------------|
    --4------L----0--L-----------------------|--7------------8------|
    ----------------------4--L------2--2--2--|----------------------|
    -----------------------------------------|----------------------|


    Q. Q. Q. Q. Q. E Q Q Q Q Q
    -----------------------|------------------------|----------------------|
    -----------------------|------------------------|----------------------|
    -----------------------|------------------------|----------------------|
    --5------4------0------|--L------7------L--8----|--5----4----0---------|
    -----------------------|------------------------|-----------------6----|
    -----------------------|------------------------|----------------------|


    H. Q. Q. Q. Q. Q. Q. E Q
    ----------------------|-----------------------|------------------------|
    ----------------------|-----------------------|------------------------|
    ----------------------|-----------------------|------------------------|
    --7------------8------|--5------4------0------|--L------7------L--8----|
    ----------------------|-----------------------|------------------------|
    ----------------------|-----------------------|------------------------|


    Q Q Q Q S S S S S S S S S S S S
    ----------------------|--------------------------------------|
    ----------------------|--------------------------------------|
    ----------------------|-----------13----12-------------------|
    --5----4----0---------|--------11----11----13-14-14-15-11-12-|
    -----------------6----|--12-14-------------------------------|
    ----------------------|--------------------------------------|


    S S S S S S S S S S S S S S S S
    --------------------------------------------------|
    --------------------------------------------------|
    -----------13----12-------------------------------|
    --------11----11----13-14-14-15-11-12-13-14-10-11-|
    --12-14-------------------------------------------|
    --------------------------------------------------|


    S S S S S S S S S S S S
    --------------------------------------|
    --------------------------------------|
    -----------13----12-------------------|
    --------11----11----13-14-14-15-11-12-|
    --12-14-------------------------------|
    --------------------------------------|


    S S S S S S S S S S S S S S S S
    --------------------------------------------------|
    -----------------------------------------11-12-13-|
    -----------13----12----------11-12-13-14----------|
    --------11----11----13-14-15----------------------|
    --12-14-------------------------------------------|
    --------------------------------------------------|


    S S S S S S S S S S S S S S S S S S S S S S
    --------------------------------------|--------------------------------|
    --------------------------------------|--------------------------------|
    -----------13----12-------------------|-----------13----12-------------|
    --------11----11----13-14-14-15-11-12-|--------11----11----14-15-11-12-|
    --12-14-------------------------------|--12-14-------------------------|
    --------------------------------------|--------------------------------|


    S S S S S S S S S S S S
    --------------------------------------|
    --------------------------------------|
    -----------13----12-------------------|
    --------11----11----13-14-14-15-11-12-|
    --12-14-------------------------------|
    --------------------------------------|


    S S S S S S S S S S S S S S S S S S S S S S S S
    --------------------------------------------|----------------|----------------|
    --------------------------------------------|----------------|----------------|
    -----------13----12-------------------------|----------------|----------------|
    --------11----11----14-15-11-12-13-14-10-11-|--14-11-13-11---|--14-11-13-11---|
    --12-14-------------------------------------|--------------0-|--------------0-|
    --------------------------------------------|----------------|----------------|


    S S S S S S S S S S S S S S S S S S S S S S S
    ----------------|-------------------|--------------------------|
    ----------------|-------------------|--------------------------|
    ----------------|-----------9-11-12-|--------------------------|
    --14-11-13-11---|--10-11-13---------|--------6---5-----2-3-----|
    --------------0-|-------------------|--0-2-4---4---6-7-----4-5-|
    ----------------|-------------------|--------------------------|


    S S S S S S S S S S S S S S S S S S S S S S S S S S S S
    ----------------------------------|--------------------------|
    ----------------------------------|--------------------------|
    ----------------------------------|--------------------------|
    --------6---5-----2-3-----1-2-----|--------6---5-----2-3-----|
    --0-2-4---4---6-7-----4-5-----3-4-|--0-2-4---4---6-7-----4-5-|
    ----------------------------------|--------------------------|


    S S S S S S S S S S S S S S S S S S S S S S S S S S S S
    ----------------------------------|--------------------------|
    ----------------------------------|--------------------------|
    --------------------------2-4-5-6-|--------------------------|
    --------6---5-----3-4-5-6---------|--------6---5-----2-3-----|
    --0-2-4---4---6-7-----------------|--0-2-4---4---6-7-----4-5-|
    ----------------------------------|--------------------------|


    S S S S S S S S S S S S S S S S S S S S S S
    ----------------------|--------------------------|
    ----------------------|--------------------------|
    ----------------------|--------------------------|
    --------6---5-2-3-----|--------6---5-----2-3-----|
    --0-2-4---4-------4-5-|--0-2-4---4---6-7-----4-5-|
    ----------------------|--------------------------|


    S S S S S S S S S S S S S S S S S S S S S S S S S S S S S
    ------------------------------|------------|------------|------------|
    ------------------------------|------------|------------|------------|
    ------------------------------|------------|------------|------------|
    --------6---5-2-3-----1-2-----|------------|------------|------------|
    --0-2-4---4-------4-5-----3-4-|--7-4-6-4-0-|--7-4-6-4-0-|--7-4-6-4-0-|
    ------------------------------|------------|------------|------------|


    S S S S S S S S S S S S S S S S S S S S S S S S S S S S S S S
    --------------|------------|------------|------------|------------|------------|
    --------------|------------|------------|------------|------------|------------|
    --------------|------------|------------|------------|--------2-4-|--5-2-4-2---|
    --------2-4-5-|--7-4-6-4-0-|--7-4-6-4-0-|--7-4-6-4-0-|--3-4-6-----|----------3-|
    --3-4-6-------|------------|------------|------------|------------|------------|
    --------------|------------|------------|------------|------------|------------|


    S S S S S S S S S S S S S S S S S S S S S S S S S S S S
    ----------------|------------|--------------|------------|------------|
    ----------------|------------|--------2-3-5-|--6-3-5-----|--6-3-5-----|
    --5-2-4-2-4-2---|--5-2-4-2---|--2-4-5-------|--------6-3-|--------6-3-|
    --------------3-|----------3-|--------------|------------|------------|
    ----------------|------------|--------------|------------|------------|
    ----------------|------------|--------------|------------|------------|


    S S S S S S S S S S S S E. E S E E E E. E S S T T S S S S
    ------------|----------------|--------------------|---------------------------|
    --6-3-5-----|----------------|--------------------|---------------------------|
    --------6-3-|--5-6-5-3-------|------4----3--------|------4----3h-4p-3---------|
    ------------|----------6-4-3-|--2------2----6--4--|--2------2---------6-4-2---|
    ------------|----------------|--------------------|-------------------------4-|
    ------------|----------------|--------------------|---------------------------|


    E. E S E E E E. E S S T T S S S S S S E. E S E E E
    --------------------|-------------------------------|--------------------|
    --------------------|-------------------------------|--------------------|
    ------6----4--3-----|------6----4h-6p-4-------------|--------------------|
    --4------4-------6--|--4------4---------8-6-4---4-6-|------7----6--------|
    --------------------|-------------------------7-----|--5------5----9--7--|
    --------------------|-------------------------------|--------------------|


    E. E S S S S S S S E. E S E E E E. E S S S S S S S
    -----------------------|--------------------|-----------------------|
    -----------------------|--------------------|-----------------------|
    -----------------------|--------------------|-----------------------|
    ------7----9-7-6-------|------4----3--------|------4----6-4-3-------|
    --5------5-------9-7-5-|--2------2----6--4--|--2------2-------6-4-2-|
    -----------------------|--------------------|-----------------------|


    > > > > > >
    E S S S E E E
    -----------|-----------||
    -----------|-----------||
    -----------|-----------||
    -----------|--2--2--2--||
    --0--0-0-0-|-----------||
    -----------|-----------||




    Duration Legend
    ---------------
    W - whole
    H - half
    Q - quarter
    E - 8th
    S - 16th
    T - 32nd
    X - 64th
    . - note dotted
    |-n-| - n-tuplets


    Tablature Legend
    ----------------
    L - tied note
    x - dead note
    g - grace note
    (n) - ghost note
    > - accentuded note
    NH - natural harmonic
    AH - artificial harmonic
    TH - tapped harmonic
    SH - semi harmonic
    PH - pitch harmonic
    h - hammer on
    p - pull off
    b - bend
    br - bendRelease
    pb - preBend
    pbr - preBendRelease
    brb - bendReleaseBend
    \n/ - tremolo bar dip
    \n - tremolo bar dive
    -/n - tremolo bar Release up
    /n\ - tremolo bar inverted dip
    /n - tremolo bar return
    -\n - tremolo bar Release down
    S - shift slide
    s - legato slide
    / - slide into from below or out of upwards
    \ - slide into from above or out of downwards
    ~ - vibrato
    W - wide vibrato
    tr - trill
    TP - tremolo picking
    T - tapping
    S - slap
    P - pop
    < - fade in
    ^ - brush up
    v - brush down


      Current date/time is Fri Dec 03, 2021 9:49 am