Bassmasta

Would you like to react to this message? Create an account in a few clicks or log in to continue.

Because the original Bassmasta.net is going to be shut down, I am creating this forum to maybe keep the community the site has given us over the last years.


    Anathema- Sleepless

    Sykk
    Sykk


    Posts : 30
    Join date : 2011-05-06
    Age : 24
    Location : DeBary

    Anathema- Sleepless Empty Anathema- Sleepless

    Post  Sykk Sat May 07, 2011 7:05 pm

    This song is best played if you use a 5 string bass...but if u have reliable strings
    tune
    down alll the way to b...but i doubt that it will sound good; well for anyone who has
    a 5
    string...listen for timing and theres parts where no bass is played, so just listen
    and follow along

    G||------------------|------------------|------------------|------------------|
    D||------------------|------------------|------------------|------------------|
    A||------------------|------------------|------------------|------------------|
    E||------------------|------------------|------------------|------------------|
    B||------------------|------------------|------------------|------------------|



    ------------------------|------------------------|------------------------|
    ------------------------|------------------------|------------------------|
    ------5---4--0---2------|------------------------|------------------------|
    ---------------------3--|----3--3--3--3-------3--|----3--3--3--3---5---2--|
    --0---------------------|-----------------0------|------------------------|



    -------------------------|------------------------|------------------------|
    -------------------------|------------------------|------------------------|
    -------------------------|------5---4--0---2------|------------------------|
    ----2--2--2--2--2--------|---------------------3--|----3--3--3--3-------3--|
    -------------------3--2--|--0---------------------|-----------------0------|



    ------------------------|-------------------------|------------------------|
    ------------------------|-------------------------|------------------------|
    ------------------------|-------------------------|------5---4--0---2------|
    ----3--3--3--3---5---0--|----0--0--0--0--0--------|---------------------3--|
    ------------------------|-------------------3--2--|--0---------------------|



    ------------------------|------------------------|-------------------------|
    ------------------------|------------------------|-------------------------|
    ------------------------|------------------------|-------------------------|
    ----3--3--3--3-------3--|----3--3--3--3---5---2--|----2--2--2--2--2--------|
    -----------------0------|------------------------|-------------------3--2--|



    ------------------------|------------------------|------------------------|
    ------------------------|------------------------|------------------------|
    ------5---4--0---2------|------------------------|------------------------|
    ---------------------3--|----3--3--3--3-------3--|----3--3--3--3---5---2--|
    --0---------------------|-----------------0------|------------------------|



    -------------------------|------------------------|------------------------|
    -------------------------|------------------------|------------------------|
    -------------------------|------5---4--0---2------|------------------------|
    ----2--2--2--2--2--------|---------------------3--|----3--3--3--3-------3--|
    -------------------3--2--|--0---------------------|-----------------0------|



    ------------------------|-------------------------|------------------------|
    ------------------------|-------------------------|------------------------|
    ------------------------|-------------------------|------5---4--0---2------|
    ----3--3--3--3---5---0--|----0--0--0--0--0--------|---------------------3--|
    ------------------------|-------------------3--2--|--0---------------------|



    ------------------------|------------------------|-------------------------|
    ------------------------|------------------------|-------------------------|
    ------------------------|------------------------|-------------------------|
    ----3--3--3--3-------3--|----3--3--3--3---5---2--|----2--2--2--2--2--------|
    -----------------0------|------------------------|-------------------3--2--|



    ------------------------|------------------------|------------------------|
    ------------------------|------------------------|------------------------|
    ------5---4--0---2------|------------------------|------------------------|
    ---------------------3--|----3--3--3--3-------3--|----3--3--3--3---5---0--|
    --0---------------------|-----------------0------|------------------------|



    -------------------------|------------------------|-----------------------|
    -------------------------|------------------------|-----------------------|
    -------------------------|--------2-------2-------|-----------------------|
    ----0--0--0--0--0--------|------------------------|--3-------3-------3----|
    -------------------3--2--|--0--0-------0-------0--|-------0-------0-------|



    ------------------------|-------------------------|------------------------|
    ------------------------|-------------------------|------------------------|
    ------------------------|-------------------------|--------2-------2-------|
    --------3-------3-------|--2---------2------------|------------------------|
    --0--0-------0-------0--|-------0-------0-0-3--2--|--0--0-------0-------0--|



    -----------------------|------------------------|-------------------------|
    -----------------------|------------------------|-------------------------|
    -----------------------|------------------------|-------------------------|
    --3-------3-------3----|--------3-------3-------|--2---------2------------|
    -------0-------0-------|--0--0-------0-------0--|-------0-------0-0-3--2--|



    ------------------------|------------------------|------------------------|
    ------------------------|------------------------|------------------------|
    ------5---4--0---2------|------------------------|------------------------|
    ---------------------3--|----3--3--3--3-------3--|----3--3--3--3---5---0--|
    --0---------------------|-----------------0------|------------------------|



    -------------------------|------------------------|------------------------|
    -------------------------|------------------------|------------------------|
    -------------------------|------5---4--0---2------|------------------------|
    ----0--0--0--0--0--------|---------------------3--|----3--3--3--3-------3--|
    -------------------3--2--|--0---------------------|-----------------0------|



    ------------------------|-------------------------|------------------------|
    ------------------------|-------------------------|------------------------|
    ------------------------|-------------------------|------5---4--0---2------|
    ----3--3--3--3---5---2--|----2--2--2--2--2--------|---------------------3--|
    ------------------------|-------------------3--2--|--0---------------------|



    ------------------------|------------------------|-------------------------|
    ------------------------|------------------------|-------------------------|
    ------------------------|------------------------|-------------------------|
    ----3--3--3--3-------3--|----3--3--3--3---5---0--|----0--0--0--0--0--------|
    -----------------0------|------------------------|-------------------3--2--|



    ------------------------|------------------------|------------------------|
    ------------------------|------------------------|------------------------|
    ------5---4--0---2------|------------------------|------------------------|
    ---------------------3--|----3--3--3--3-------3--|----3--3--3--3---5---2--|
    --0---------------------|-----------------0------|------------------------|



    -------------------------|------------------------|-----------------------|
    -------------------------|------------------------|-----------------------|
    -------------------------|--------2-------2-------|-----------------------|
    ----2--2--2--2--2--------|------------------------|--3-------3-------3----|
    -------------------3--2--|--0--0-------0-------0--|-------0-------0-------|



    ------------------------|-------------------------|------------------------|
    ------------------------|-------------------------|------------------------|
    ------------------------|-------------------------|--------2-------2-------|
    --------3-------3-------|--2---------2------------|------------------------|
    --0--0-------0-------0--|-------0-------0-0-3--2--|--0--0-------0-------0--|



    -----------------------|------------------------|-------------------------|
    -----------------------|------------------------|-------------------------|
    -----------------------|------------------------|-------------------------|
    --3-------3-------3----|--------3-------3-------|--2---------2------------|
    -------0-------0-------|--0--0-------0-------0--|-------0-------0-0-3--2--|



    ------------------------|-----------------------|------------------------|
    ------------------------|-----------------------|------------------------|
    --------2-------2-------|-----------------------|------------------------|
    ------------------------|--3-------3-------3----|--------3-------3-------|
    --0--0-------0-------0--|-------0-------0-------|--0--0-------0-------0--|



    -------------------------|------------------------|-----------------------|
    -------------------------|------------------------|-----------------------|
    -------------------------|--------2-------2-------|-----------------------|
    --2---------2------------|------------------------|--3-------3-------3----|
    -------0-------0-0-3--2--|--0--0-------0-------0--|-------0-------0-------|



    ------------------------|-------------------------|-------------------|
    ------------------------|-------------------------|-------------------|
    ------------------------|-------------------------|-------------------|
    --------3-------3-------|--2---------2------------|-------------------|
    --0--0-------0-------0--|-------0-------0-0-3--2--|--0----------------|



    -------------------|-------------------|-------------------|-------------------|
    -------------------|-------------------|-------------------|-------------------|
    -------------------|-------------------|-------------------|-------------------|
    --2----------------|--3----------------|--0----------------|-------------------|
    -------------------|-------------------|-------------------|--0----------------|



    -------------------|-------------------|-------------------|-------------------|
    -------------------|-------------------|-------------------|-------------------|
    -------------------|-------------------|-------------------|-------------------|
    --2----------------|--3----------------|--2----------------|-------------------|
    -------------------|-------------------|-------------------|--0----------------|



    -------------------|-------------------|-------------------|-------------------|
    -------------------|-------------------|-------------------|-------------------|
    -------------------|-------------------|-------------------|-------------------|
    --2----------------|--3----------------|--0----------------|-------------------|
    -------------------|-------------------|-------------------|--0----------------|



    -------------------|-------------------|-------------------|
    -------------------|-------------------|-------------------|
    -------------------|-------------------|-------------------|
    --2----------------|--3----------------|--2----------------|
    -------------------|-------------------|-------------------|



    ------------------------|-----------------------|------------------------|
    ------------------------|-----------------------|------------------------|
    --------2-------2-------|-----------------------|------------------------|
    ------------------------|--3-------3-------3----|--------3-------3-------|
    --0--0-------0-------0--|-------0-------0-------|--0--0-------0-------0--|



    -------------------------|------------------------|-----------------------|
    -------------------------|------------------------|-----------------------|
    -------------------------|--------2-------2-------|-----------------------|
    --2---------2------------|------------------------|--3-------3-------3----|
    -------0-------0-0-3--2--|--0--0-------0-------0--|-------0-------0-------|



    ------------------------|-------------------------|------------------------|
    ------------------------|-------------------------|------------------------|
    ------------------------|-------------------------|--------2-------2-------|
    --------3-------3-------|--2---------2------------|------------------------|
    --0--0-------0-------0--|-------0-------0-0-3--2--|--0--0-------0-------0--|



    -----------------------|------------------------|-------------------------|
    -----------------------|------------------------|-------------------------|
    -----------------------|------------------------|-------------------------|
    --3-------3-------3----|--------3-------3-------|--2---------2------------|
    -------0-------0-------|--0--0-------0-------0--|-------0-------0-0-3--2--|



    ------------------------|-----------------------|------------------------|
    ------------------------|-----------------------|------------------------|
    --------2-------2-------|-----------------------|------------------------|
    ------------------------|--3-------3-------3----|--------3-------3-------|
    --0--0-------0-------0--|-------0-------0-------|--0--0-------0-------0--|



    -------------------------|-------------------|------------------|
    -------------------------|-------------------|------------------|
    -------------------------|-------------------|------------------|
    --2---------2------------|-------------------|------------------|
    -------0-------0-0-3--2--|--0----------------|------------------|



    ------------------|------------------|--------------------------|
    ------------------|------------------|--------------------------|
    ------------------|------------------|--------------------------|
    ------------------|------------------|--------------------------|
    ------------------|------------------|--0--0--0--0--0--0--0--0--|



    ------------------------|-------------------------|--------------------------|
    ------------------------|-------------------------|--------------------------|
    ------------------------|-------------------------|--------------------------|
    ----------------2--3----|-----------------2--3----|-----------------2--3--2--|
    --0----0--0--0----------|--0--0--0--0--0----------|--0--0--0--0--0-----------|



    -----------------------------|-------------------------|
    -----------------------------|-------------------------|
    --------------7--5-7-5-4--5--|--4----------------------|
    --0--0--0--0-----------------|-----------------2--3----|
    -----------------------------|-----0--0--0--0----------|



    -------------------------|--------------------------|
    -------------------------|--------------------------|
    -------------------------|--------------------------|
    -----------------2--3----|-----------------2--3--2--|
    --0--0--0--0--0----------|--0--0--0--0--0-----------|



    -----------------------------|-------------------------|
    -----------------------------|-------------------------|
    --------------7--5-7-5-4--5--|--4----------------------|
    --0--0--0--0-----------------|-----------------2--3----|
    -----------------------------|-----0--0--0--0----------|



    -------------------------|--------------------------|
    -------------------------|--------------------------|
    -------------------------|--------------------------|
    -----------------2--3----|-----------------2--3--2--|
    --0--0--0--0--0----------|--0--0--0--0--0-----------|



    -----------------------------|-------------------------|
    -----------------------------|-------------------------|
    --------------7--5-7-5-4--5--|--4----------------------|
    --0--0--0--0-----------------|-----------------2--3----|
    -----------------------------|-----0--0--0--0----------|



    -------------------------|--------------------------|
    -------------------------|--------------------------|
    -------------------------|--------------------------|
    -----------------2--3----|-----------------2--3--2--|
    --0--0--0--0--0----------|--0--0--0--0--0-----------|



    -----------------------------|-------------------------|
    -----------------------------|-------------------------|
    --------------7--5-7-5-4--5--|--4----------------------|
    --0--0--0--0-----------------|-----------------2--3----|
    -----------------------------|-----0--0--0--0----------|



    -------------------------|--------------------------|
    -------------------------|--------------------------|
    -------------------------|--------------------------|
    -----------------2--3----|-----------------2--3--2--|
    --0--0--0--0--0----------|--0--0--0--0--0-----------|



    -----------------------------|-------------------------|
    -----------------------------|-------------------------|
    --------------7--5-7-5-4--5--|--4----------------------|
    --0--0--0--0-----------------|-----------------2--3----|
    -----------------------------|-----0--0--0--0----------|



    -------------------------|--------------------------|
    -------------------------|--------------------------|
    -------------------------|--------------------------|
    -----------------2--3----|-----------------2--3--2--|
    --0--0--0--0--0----------|--0--0--0--0--0-----------|



    -----------------------------|-------------------------|
    -----------------------------|-------------------------|
    --------------7--5-7-5-4--5--|--4----------------------|
    --0--0--0--0-----------------|-----------------2--3----|
    -----------------------------|-----0--0--0--0----------|



    -------------------------|--------------------------|
    -------------------------|--------------------------|
    -------------------------|--------------------------|
    -----------------2--3----|-----------------2--3--2--|
    --0--0--0--0--0----------|--0--0--0--0--0-----------|



    -----------------------------|-------------------------|
    -----------------------------|-------------------------|
    --------------7--5-7-5-4--5--|--4----------------------|
    --0--0--0--0-----------------|-----------------2--3----|
    -----------------------------|-----0--0--0--0----------|



    -------------------------|--------------------------|
    -------------------------|--------------------------|
    -------------------------|--------------------------|
    -----------------2--3----|-----------------2--3--2--|
    --0--0--0--0--0----------|--0--0--0--0--0-----------|



    -----------------------------|------------------------|-----------------------
    -----------------------------|------------------------|-----------------------
    --------------7--5-7-5-4--5--|--------2-------2-------|-----------------------
    --0--0--0--0-----------------|------------------------|--3-------3-------3----|-----------------------------|--0--0-------0-------0--|-------0-------0------



    ------------------------|-------------------------|-------------------||
    ------------------------|-------------------------|-------------------||
    ------------------------|-------------------------|-------------------||
    --------3-------3-------|--2---------2------------|-------------------||
    --0--0-------0-------0--|-------0-------0-0-3--2--|--0----------------||

      Current date/time is Fri Dec 03, 2021 10:27 am