Bassmasta

Would you like to react to this message? Create an account in a few clicks or log in to continue.

Because the original Bassmasta.net is going to be shut down, I am creating this forum to maybe keep the community the site has given us over the last years.


    Audioslave - I am the Highway

    Sykk
    Sykk


    Posts : 30
    Join date : 2011-05-06
    Age : 24
    Location : DeBary

    Audioslave - I am the Highway Empty Audioslave - I am the Highway

    Post  Sykk Sat May 07, 2011 6:58 pm

    1st Verse
    G|------------------------------------------------|
    D|------------------------------------------------|
    A|------------------------------------------------|
    E|--5---55-5--05---55-5--05---55-5--05---55-5--0--|

    1st 2nd
    G|------------------------------------------------|-----|----|
    D|o----------------------------------------------o|-----|----|
    A|o------------3---33-3--3-----------------------o|-----|-23-|
    E|--1---11-1--3--------------3---33-3--05---55-5--|--3--|----|

    1st 2nd
    G|------------------------------------------------|-----|----|
    D|o----------------------------------------------o|-----|----|
    A|o------------3-----------------------3---------o|-----|----|
    E|--1---11-1--3--5---55-5-5-3---33-3--3--5---55-5-|--5--|----|

    1st Chorus 1st 2nd
    G|--------------------------------|-----------|-----------|
    D|o------------------------------o|-----------|-----------|
    A|o-3---33-3------------5---55-5-o|----------2|5--/7--/7--|
    E|-----------3---33-3-5-----------|-5---55-5--|-----------|

    2nd Verse
    G|------------------------------------------------|
    D|------------------------------------------------|
    A|------------------------------------------------|
    E|--5---55-5--05---55-5--05---55-5--05---55-5--0--|

    1st 2nd
    G|------------------------------------------------|----|-----|
    D|o----------------------------------------------o|----|-----|
    A|o------------3---33-3--3-----------------------o|-23-|-----|
    E|--1---11-1--3--------------3---33-3--05---55-5--|----|--3--|

    1st 2nd
    G|------------------------------------------------|-----|---|
    D|o----------------------------------------------o|-----|---|
    A|o------------3-----------------------3---------o|-----|---|
    E|--1---11-1--3--5---55-5-5-3---33-3--3--5---55-5-|--5--|---|

    2nd Chorus 1st 2nd,3rd 4th
    G|--------------------------------|-----------|-----------|--------------------|
    D|o------------------------------o|-----------|-----------|--------------------|
    A|o-3---33-3------------5---55-5-o|-----------|----------2|--/7--/7--/77777777-|
    E|-----------3---33-3-5-----------|-5---55-5-3|-5---55-5--|--------------------|

    Interlude
    G|--------------------------------------------------------------------|
    D|---------------------------------------------------------------7775-|
    A|---------33333333-------------------------33333335------------------|
    E|-11111111--------3333333357500000-11111113--------33333333-5555-----|

    G|--------------------------------------------------------------------|
    D|--------------------------------------------------------------------|
    A|---------33333333----------------23--------33333333-----------------|
    E|-11111113--------3333333355555555--11111111--------3333333355555555-|

    3nd Chorus 1st 2nd,3rd 4th
    G|--------------------------------|-----------|-----------|-------------|
    D|o------------------------------o|-----------|-----------|-------------|
    A|o-3---33-3------------5---55-5-o|-----------|----------2|--/77777777--|
    E|-----------3---33-3-5-----------|-5---55-5-3|-5---55-5--|-------------|
    4th cont
    G|------------------------------------|
    D|------------------------------------|
    A|--/77777777--/77777777--/77777777--|
    E|------------------------------------|

    Ending 2nd
    G|------------------------------------------------|---|
    D|o----------------------------------------------o|---|
    A|o----------------------------------------------o|---|
    E|--5---55-5--05---55-5--05---55-5--05---55-5--0--|-5-|

      Current date/time is Fri Dec 03, 2021 10:06 am