Bassmasta

Would you like to react to this message? Create an account in a few clicks or log in to continue.

Because the original Bassmasta.net is going to be shut down, I am creating this forum to maybe keep the community the site has given us over the last years.


    Deep Purple - Smoke on the Water

    avatar
    Tom


    Posts : 3
    Join date : 2011-05-05

    Deep Purple - Smoke on the Water Empty Deep Purple - Smoke on the Water

    Post  Tom Sat May 07, 2011 2:29 am

    G|----------------|----------------|----------------|----------------|
    D|----------------|----------------|----------------|----------------|
    A|----------------|----------------|----------------|---------3-3-3-1|
    E|-----------0-1-2|-3-3-3-3-3-3-3-3|-3-3-3-3-3-3-3-3|-3-3-3-3--------|


    G|----------------|----------------|----------------|----------------|
    D|----------------|----------------|----------------|----------------|
    A|---1------------|----------------|----------------|---------3-3-3-1|
    E|-----3-3-3-3-0-1|-3-3-3-3-3-3-3-3|-3-3-3-3-3-3-3-3|-3-3-3-3--------|

    Verse: (.52)
    G|----------------|----------------|----------------|----------------|
    D|----------------|-----5------5---|----------------|-----5--3-------|
    A|----------------|----------------|---------3---5--|----------3-----|
    E|---3-3-3-3-0-1-2|-3-3----3-3-----|-3-3--6---------|-3-3--------1-3-|


    G|----------------|----------------|----------------|----------------|
    D|-------5--------|-----5------5---|-----5---5---5--|-----5--3-------|
    A|---3-5---5-3----|----------------|----------------|----------3-----|
    E|-6-----------6--|-3-3----3-3-----|-3-3---3---3----|-3-3--------1---|


    G|----------------|----------------|----------------|----------------|
    D|----------------|-----5-------5--|(3)5-3----------|-----5--3-------|
    A|---5-4-3--------|----------------|-------5-3------|----------3-----| play fast
    E|-3-------6-3-1-2|-3-3----3-3-----|3----------6-3-1|-3-3--------1---| as you can.


    G|----------------|----------------|----------------|----------------|
    D|(3)5-3----------|-----5------5---|---5-----3-5----|-----5--3-------|
    A|-------5-3---3--|----------------|-----3-5-----3-5|----------3-----|
    E|3----------6----|-3-3----3-3-----|-3--------------|-3-3--------1---|

    (1.25)
    G|----------------|----------------|----------------|----------------|
    D|(3)5-3----------|----------------|----------------|----------------|
    A|-------5-3------|-3--------------|----------------|----1---1-------|
    E|3----------6-3--|----------------|-4--------------|-3----3---3-1-3-|


    G|----------------|----------------|----------------|----------------|
    D|----------------|----------------|----------------|----------------|
    A|---1---1--------|-3--------------|----------------|----------------|
    E|-3---3---3-1----|----------------|-4----0-1-2-----|-3-3-3-3-3-3-3-3|


    G|----------------|----------------|----------------|----------------|
    D|----------------|----------------|----------------|----------------|
    A|----------------|---------3-3-3-1|----------------|----------------|
    E|-3-3-3-3-3-3-3-3|-3-3-3-3--------|--3-3-3-3-3-1-2-|-3-3-3-3-3-3-3-3|

    Verse:(1.55)
    G|----------------|----------------|----------------|----------------|
    D|----------------|----------------|-----(3)5-3-----|-5---5------5---|
    A|----------------|---------3-3-3-1|------------5-35|----------------|
    E|-3-3-3-3-3-3-3-3|-3-3-3-3--------|-3-3-3----------|---3----3-3-----|


    G|----------------|----------------|----------------|----------------|
    D|----------------|-----5--3-------|----------------|-5---5------5---|
    A|-----------3-5--|----------3-----|-------3---5---3|----------------|
    E|-3-3-3-3-6-----1|-3-3--------1---|-3-6-3---3---3--|---3----3-3-----|


    G|----------------|----------------|----------------|----------------|
    D|-----5---5---5--|-----5--3---3---|-5--------------|-----5------5---|
    A|----------------|----------3-----|---5---3-5------|----------------|
    E|-3-3---3---3----|-3-3------------|-----6-----1--2-|-3-3----3-3-----|


    G|----------------|----------------|-------------3--|----------------|
    D|-----5---5---5--|-----5--3-------|---------3-----3|-5---5------5---|
    A|----------------|------------3---|-----3-5---5----|----------------|
    E|-3-3---3---3----|-3-3------1---1-|-3-6------------|---3----3-3-----|

    H Smoke on the water....(2.29)
    G|----------------|----------------|----------------|----------------|
    D|-----5-55---5---|-------5-3------|--------3-5-3535|----------------|
    A|----------------|-----------3----|----3-5---------|-3--------------|
    E|-3-3------3-----|-3-3-3-------1--|-3--------------|----------------|


    G|----------------|----------------|----------------|----------------|
    D|----------------|----------------|----------------|----------------|
    A|----------------|----1---1-------|----1---1-------|-3--------------|
    E|-4--------------|-3----3---3-1-3-|--3---3---3-1---|----------------|

    H
    G|----------------|----------------|----------------|----------------|
    D|----------------|----------------|----------------|----------------|
    A|----------------|----------------|----------------|---------3-3-3-1|
    E|-4----0-1-2-----|-3-3-3-3-3-3-3-3|3-3-3-3-3-3-3-12|-3-3-3-3--------|


    G|----------------|----------------|----------------|----------------|
    D|----------------|----------------|----------------|----------------|
    A|----------------|----------------|----------------|---------3-3-3-1|
    E|--3-3-3-3-0-1-2-|-3-3-3-3-3-3-3-3|-3-3-3-3-3-0-1-2|-3-3-3-3--------|


    G|----------------|
    D|----------------|
    A|----------------|
    E|--3-3-3-3-0-1-2-|

    Guitar Solo....(2.57)
    G|----------------|----------------|----------------|----------------|
    D|---------5-3----|----------------|-----3-55-3-----|--5-33---------3|
    A|-----3-5-----5-3|-------------3-5|-3-6--------6-3-|-------5---3-5--|
    E|-3-6------------|-6-3-1-2-3-6----|---------------6|3--------6------|


    G|----------------|----------------|----------------|---3------------|
    D|-5-------5-----3|----------------|---55-3---------|-5---5-3-------3|
    A|-----3-----3-5--|---3-----------5|-3------6-3--3-6|---------5-3-5--|
    E|---6---3--------|-6---6-3-1-3-6--|------------6---|----------------|


    G|----------------|----------3-----|----------------|----------------|
    D|-5-55-3---------|-----3-4-5--5-3-|-----3-5-3------|-----------3-5-3|
    A|--------5-3-----|-3-5------------|-3-6-------6-3--|----3--5--------|
    E|-----------6-3-6|----------------|---------------6|36-3--3--3------|


    G|-------------3--|----------------|----------------|----------------|
    D|---------3-----3|-5-3------------|--------3-5-3--3|(3)5-553--------|
    A|-----3-5---5----|-----5-3-------2|-3-33-6-------6-|--------5-3-----|
    E|-3-6------------|---------6-3-6--|----------------|-----------6-3-6|


    G|----------------|----------------|----------------|----------------|
    D|----------------|----------------|----------------|----------------|
    A|-3--------------|----------------|----------------|----------------|
    E|----------------|----------------|-1--------------|------0-1-2-----|


    G|----------------|----------------|----------------|----------------|
    D|----------------|----------------|----------------|----------------|
    A|----------------|----------------|---------3-3-3-1|----------------|
    E|-3-3-3-3-3-3-3-3|-3-3-3-3-3-3-3-3|-3-3-3-3--------|--3-3-3-3-3-1-2-|


    G|----------------|----------------|----------------|----------------|
    D|----------------|----------------|----------------|----------------|
    A|----------------|----------------|---------3-3-3-1|----------------|
    E|-3-3-3-3-3-3-3-3|-3-3-3-3-3-0-1-2|-3-3-3-3--------|--3-3-3-3-0-1-2-|


    G|----------------|----------------|----------------|----------------|
    D|----------------|----------------|----------------|----------------|
    A|----------------|----------------|---------3-3-3-1|----------------|
    E|-3-3-3-3-3-3-3-3|-3-3-3-3-3-0-1-2|-3-3-3-3--------|--3-3-3-3-0-1-2-|

    Verse:(3.56)
    G|----------------|----------------|----------------|----------------|
    D|-----5------5---|-----5----------|-----5--3-------|---5---3--------|
    A|----------------|----------3--5--|----------3-----|-----------5---3|
    E|-3-3----3-3-----|-3-3---6--------|-3-3--------1---|-3---3---3---3--|


    G|----------------|----------------|----------------|----------------|
    D|-----5------5---|-5---5-----3----|-5---5-3---3---|-----------5-3--|
    A|----------------|-------3-5----3-|----------3-----|----3--5------55|
    E|-3-3----3-3-----|---3---------6--|---3------------|36-3--3--3------|


    G|----------------|----------------|----------------|----------------|
    D|-----5------5---|-----5-------5--|-----5--3-------|-------5-3------|
    A|----------------|---------5------|---5------3-----|---3-5-----5-3--|
    E|-3-3----3-3-----|-3-3---3---3----|-3----------1-3-|-6-------------6|


    G|----------------|----------------|----------------|----------------|
    D|-----5------5---|---5-3----------|---------3------|---------5-3----|
    A|----------------|-------5-3------|-----3-5---3----|-----3-5-----5--|
    E|-3-3----3-3-----|-3---------6-3-1|-3-6----------1-|-3-6-----------3|

    Smoke on the water.....(4.29)
    G|----------------|----------------|----------------|----------------|
    D|----------------|----------------|----------------|----------------|
    A|-3--------------|----------------|----1---1-------|----1---1-------|
    E|----------------|-4--------------|-3----3---3-1-3-|--3---3---3-1---|

    G|----------------|----------------|----------------|----------------|
    D|----------------|----------------|----------------|----------------|
    A|-3--------------|----------------|----------------|----------------|
    E|----------------|-4----0-1-2-----|-3-3-3-3-3-3-3-3|-3-3-3-3-3-3-1-2|

    G|----------------|----------------|----------------|----------------|
    D|----------------|----------------|----------------|----------------|
    A|---------3-3-3-1|----------------|----------------|----------------|
    E|-3-3-3-3--------|-3-3-3-3-3-3-0-1|-3-3-3-3-3-3-3-3|-3-3-3-3-3-3-1-2|

    G|----------------|----------------|----------------|----------------|
    D|----------------|----------------|-----5-5-----5-5|-----5-5-----5-5|
    A|---------3-3-3-1|-1--------------|----------------|----------------|
    E|-3-3-3-3--------|---3-3-3-3-0-1-2|-3-3-----3-3----|-3-3-----3-3----|


    G|-------------5--|--3-------------|----------------|----------------|
    D|-----5-5--------|------5-3-------|-----5-5-----5-5|-----5-5-----5-5|
    A|---------3-3---1|----------5---3-|----------------|----------------|
    E|-3-3------------|----3-------6---|-3-3-----3-3----|-3-3-----3-3----|


    G|-------------5--|--3-------------|
    D|-----5-5--------|----------------|
    A|---------3-3---1|--------5-4-3---|
    E|-3-3------------|----3-6-------6-|

    solo....(5.13)
    G|----------------|----------------|-------------5-5|---3------------|
    D|-----5-5-----5-5|-----5-5-----5-5|-----5-5--------|----------------|
    A|----------------|----------------|----------------|-1---1---------5|
    E|-3-3-----3-3----|-3-3-----3-3----|-3-3-----3-3----|-------3-1-3-6--|

      Current date/time is Fri Dec 03, 2021 10:55 am