Bassmasta

Would you like to react to this message? Create an account in a few clicks or log in to continue.

Because the original Bassmasta.net is going to be shut down, I am creating this forum to maybe keep the community the site has given us over the last years.


    AUDIOSLAVE - SHOW ME HOW TO LIVE

    Sykk
    Sykk


    Posts : 30
    Join date : 2011-05-06
    Age : 24
    Location : DeBary

     AUDIOSLAVE - SHOW ME HOW TO LIVE Empty AUDIOSLAVE - SHOW ME HOW TO LIVE

    Post  Sykk Sat May 07, 2011 7:20 pm

    SHOW ME HOW TO LIVE by AUDIOSLAVE.
    Album: Audioslave.
    :
    # verse # 6X
    G---------------------------------------------------------|
    D---------2---------------------------------2-------------|
    A-------2--------------0h1p0--0-----------2---------------|
    D---0-2------0-2--0-2--------2-2-250-00-2------0-2--0-2---|
    :
    # chorus # 4X
    G-----------------------------------------|
    D-----------------------------------------|
    A----------------/7----------------/7-----|
    D---2--5--02-020----0-2--5--02-020----0---|
    :
    Repeat verse 2X and chorus 4X.
    :
    # solo # *=play 4X
    G-|------|3X|------|---------------|------|3X|------|---------------------|
    D-|----------------|---------------|----------------|--------*----*-------|
    A-|-2--5---202-----|-2------*------|-2\-----202-----|-2\----5----6----7---|
    D-|-------0---0-00-|----0--2----32-|----0--0---0-00-|----0----------------|
    :
    # bridge #
    G-|-----------|3X|----------|-----------|
    D-|-------------------------|-----------|
    A-|-------------------------|-----------|
    D-|-2-0----0-5-2----2-0---2-|-2-0---2---|
    :
    Repeat chorus 4X.
    :
    # outro #
    G-----------------------------------------------------------|
    D-----------------------------------------------------------|
    A-----------------------------------------------------------|
    D---2------2-----0-2------2-----0-2------2-----0-2------2---|

      Current date/time is Fri Dec 03, 2021 9:15 am