Bassmasta

Would you like to react to this message? Create an account in a few clicks or log in to continue.

Because the original Bassmasta.net is going to be shut down, I am creating this forum to maybe keep the community the site has given us over the last years.


    Audioslave - Like a Stone

    Sykk
    Sykk


    Posts : 30
    Join date : 2011-05-06
    Age : 24
    Location : DeBary

    Audioslave - Like a Stone Empty Audioslave - Like a Stone

    Post  Sykk Sat May 07, 2011 7:18 pm

    bass comes in after one round of guitar riff
    Intro x5
    G|----------------------------------------------|
    D|--------------------------------------3-------|
    A|----55^-------55^-------55^-------55----5-----|
    E|-3---------3---------3---------3--------------|

    Chorus
    G|-------------------|-----------------------|
    D|-------------------|----------------7/5----|
    A|-----------8-------|-----------8-----------|
    E|-3---5-6-----6-3---|--3---5-6--------------|

    G|-----------------------|
    D|-----------------------|
    A|-6-------8-------6-----|
    E|---6-3------6-3----6-3-|

    Bridge
    G|--------------------|
    D|--------------------|
    A|-5-------5----------|
    E|----0000----0000----|

    Intro (x5)

    Chorus

    Bridge 2
    G|-------------------------|
    D|-------------------------|
    A|-5-------5~---5-------5~-|
    E|----0000---------0000----|

    solo part
    G|-------------------|---------------------------|
    D|-------------------|----------------7/5--------|
    A|-----------8-------|------------8--------------|
    E|-3---5-6-----6-3---|--3---5-6------------------|


    G|-------------------|-------------------|-------------------|
    D|-------------------|-------------------|-------------------|
    A|-66666666----------|-88888888----------|-66666666----------|
    E|----------33333333-|----------33333333-|----------33333333-|

    G|-------------------|
    D|-------------------|
    A|-55555555----------|
    E|----------0~-------|

    wait after the solo then play this
    G|-------------------------------------------------------------|
    D|-------------------------------------------------------------|
    A|-6~---------------------------6~-----------------------------|
    E|---------8~-----6~-----8~-------------8~---00000000000000000-|

    then play Chorus and bridge

    End
    G|---------|
    D|---------|
    A|--6~-----|
    E|---------|





      Current date/time is Fri Dec 03, 2021 10:05 am