Bassmasta

Would you like to react to this message? Create an account in a few clicks or log in to continue.

Because the original Bassmasta.net is going to be shut down, I am creating this forum to maybe keep the community the site has given us over the last years.


    Muse - New Born

    Sykk
    Sykk


    Posts : 30
    Join date : 2011-05-06
    Age : 24
    Location : DeBary

    Muse - New Born Empty Muse - New Born

    Post  Sykk Sat May 07, 2011 7:14 pm

    G---9--------9-----|---9--------9-----|---9--------9-----|---9--------9-----|
    D-----7-9------7-9-|-----7-9------7-9-|-----7-9------7-9-|-----7-9------7-9-|
    A-7--------7-------|-7--------7-------|-7--------7-------|-7--------7-------|
    D------------------|------------------|------------------|------------------|

    G---9--------9-----|---5--------5-----|---4--------4-----|---8--------8-----|
    D-----7-9------7-9-|-----4-5------4-5-|-----4-5------4-5-|-----7-9------7-9-|
    A-7--------7-------|-3--------3-------|-2--------2-------|-6--------6-------|
    D------------------|------------------|------------------|------------------|

    Heavy Riff (Wait for guitar to play once)
    G-----------------|-----------------|-----------------|-----------------|
    D-----------------|-----------------|-----------------|-----------------|
    A-----------------|-0-0-0-0-3-0-3-4-|-5---------------|---------2-2-2-2-|
    D-2-2-2-2-5-2-5-6-|-----------------|---0-0-0-3-0-3-4-|-5-5-5-5---------|

    G-----------------|-----------------|----------------|----------------|
    D-----------------|-----------------|----------------|----------------|
    A-3-3-3-3-3-3-3-3-|-1-1-1-1-1-1-1-1-|2-2-2-2-2-2-2-2-|2-2-2-2-2-2-2-2-|
    D-----------------|-----------------|----------------|----------------|

    Chorus
    G--------------|------------|------------|------------|
    D--------------|------------|------------|------------|
    A--------------|-0-0-0--3-3-|-5-5-5------|--------2-2-|
    D-2-2-2--5-5-5-|------------|--------4-4-|-5-5-5------|

    G--------------|--------------|--------------|--------------|
    D--------------|--------------|--------------|--------------|
    A-3-3-3--3-3-3-|-1-1-1--1-1-1-|-2-2-2--2-2-2-|-2-2-2--2-2-2-|
    D--------------|--------------|--------------|--------------|

    G--------------|--------------|----------------|----------------------|
    D--------------|--------------|----------------|----------------------|
    A-3-3-3--3-3-3-|-1-1-1--1-1-1-|2-2-2-2-2-2-2-2-|-14-14-14-14-14-14-14|
    D--------------|--------------|----------------|----------------------|

      Current date/time is Fri Dec 03, 2021 11:02 am